Guitar Tabs
song title    band name

Join Us Today!

Don't strum alone...
be a part of the largest online Christian music community. Browse thousands of guitar tabs and chat w/ musicians like yourself.


It's Free!

This tab has been rated a 5.00 out of 5 for accuracy. (7 votes)Sorry, but you must be logged in to rate this tab.
Click here to log-in, or you can click here to register.
(Registration is free)

All songs owned by corresponding publishing company. If you make copies of any song on this website, be sure to report your usage to CCLI.
Submitted by: _slickshoes_

Slick Shoes-Far From Nowhere
Song: Now is the Time


This song is awesome, i think the solo thingy is kinda off, but oh well

Intro (guitar 1) 2x
e/--------------------------------------------------------------------------|
B/--------------------------------------------------------------------------|
G/--7-7--7-7-------------------9-9--10-10-10--10-10-------------------------|
D/--5-7--5-5--7-7--8-8-8--8-8--9-9--10-10-10--10-10--7-7-10-10-10--10-10----|
A/--5-5--5-5--5-5--8-8-8--8-8--7-7--8--8--8---8--8---7-7-10-10-10--10-10----|
E/------------5-5--6-6-6--6-6------------------------5-5-8--8--8---8--8-----|

e/--------------------------------------------------------------------------|
B/--------------------------------------------------------------------------|
G/--------------------------------------------------------------------------|
D/--5-5-5-------------------------------------------------------------------|
A/--5-5-5-------------------------------------------------------------------|
E/--3-3-3-------------------------------------------------------------------|

Intro (guitar 2) 1X
E/----------------------------------------------------------------
B/----------------------------------------------------------------
G/---10-9-10-9-------------10-9-10-9--------------10-9-10-9--10-10
D/------------10-7-7----------------10---------------------10-----
A/-------------------------------------8-8------------------------
E/----------------------------------------------------------------

E/----------------------------------------------------------------
B/----------------------------------------------------------------
G/---10-9-10-9----------------------------------------------------
D/------------10--10-10-------------------------------------------
A/----------------------------------------------------------------
E/----------------------------------------------------------------

  Verse 1 (guitars 1&2) 4x
E/---------------------------------------------------------------------------
B/---------------------------------------------------------------------------
G/-77777777-----------9h10-9--1010101010101010-------------------------------
D/-77777777--8888888----------1010101010101010--1010101010101010-------------
A/-55555555--8888888-----------8-8-8-8-8-8-8-8--1010101010101010-------------
E/-----------6666666-----------------------------8-8-8-8-8-8-8-8-------------
 [---------------------------------PM------------------------------------]


Chorus (guitar 1) 2x
E/--------------------------------------------------------------------------|
B/--------------------------------------------------------------------------|
G/--7-7--7-7-------------------9-9--10-10-10--10-10-------------------------|
D/--5-7--5-5--7-7--8-8-8--8-8--9-9--10-10-10--10-10--7-7-10-10-10--10-10----|
A/--5-5--5-5--5-5--8-8-8--8-8--7-7--8--8--8---8--8---7-7-10-10-10--10-10----|
E/------------5-5--6-6-6--6-6------------------------5-5-8--8--8---8--8-----|

e/--------------------------------------------------------------------------|
B/--------------------------------------------------------------------------|
G/--------------------------------------------------------------------------|
D/--5-5-5-------------------------------------------------------------------|
A/--5-5-5-------------------------------------------------------------------|
E/--3-3-3-------------------------------------------------------------------|

Chorus (guitar 2) 2x
E/----------------------------------------------------------------
B/----------------------------------------------------------------
G/---10-9-10-9-------------10-9-10-9--------------10-9-10-9--10-10
D/------------10-7-7----------------10---------------------10-----
A/-------------------------------------8-8------------------------
E/----------------------------------------------------------------

E/----------------------------------------------------------------
B/----------------------------------------------------------------
G/---10-9-10-9----------------------------------------------------
D/------------10--10-10-------------------------------------------
A/----------------------------------------------------------------
E/----------------------------------------------------------------

Verse 2 (guitars 1&2)
E/-----------------------------------------------------------------------
B/-----------------------------------------------------------------------
G/-77777777---------------1010101010101010-------------------------------
D/-77777777--8888888------1010101010101010--1010101010101010-------------
A/-55555555--8888888-------8-8-8-8-8-8-8-8--1010101010101010-------------
E/-----------6666666------------------------8-8-8-8-8-8-8-8--------------

Verse 3                        
E/----------------------------------------------------------------------
B/---------------------------------*------------**----------------------
G/--77-77-7---33-33-------------55-55------5555---10-9------------------
D/--77-77-7---33-33---33-33-3---55-55------5555----x-x------------------
A/--55-55-5---11-11---33-33-3---33-33------3333----8-7------------------
E/--------------------11-11-1-------------------------------------------
                               *(1st time)  **(2nd time)

Then Play Chorus Part again

Slow Part (guitar 1) 2x
E/------------------------------
B/------------------------------
G/--7----9--10--9--5---7---5---7
D/--7----9--10--9--5---7---3---7
A/--5----7--8---7--3---5---3---5
E/------------------------------
 
Slow Solo thingy (guitar 2) 4x
E/---------------------------------------------
B/---------------------------------------------
G/------10---9---10-10---------12----10----9-10
D/--8-8----8---8---------10-10----10----10-----
A/---------------------------------------------
E/---------------------------------------------

Then do the chorus 4 times

any questions or anything, then feel free to email me, herooftheday2@aol.com

Comments about this tab

Rainer. - 2004-01-10

Good tab overall. A couple comments I'd like to make are:
The slow bridge part uses full chords, not power chords.
The chorus isn't pm'd power chords, but two note riffs being played.


Jetix - 2005-02-23

the guitar 2 during the chorus doesnt sound right to me


3rd Bassman - 2006-08-10

good tab... i think the only thing is the lead thing... it should be this

Intro (guitar 2) 1X
E/----------------------------------------------------------------
B/----------------------------------------------------------------
G/---10-9-10-9-------------10-9-10-9--------------10-9-10-9--10-10
D/------------10-8-8----------------10---------------------10-----
A/-------------------------------------8-8------------------------
E/----------------------------------------------------------------


Add a comment/correction

Complimentary Christian Ringtones
Dadamobile and CGR have teamed up to bring your favorite Christian artists right to your phone. Sign up today and get 10 complementary ringtones!
Tab Country
Did you know CGR has a sister site w/ country guitar tabs? Well we do! Its called Tab Country. It has a great archive with a lot of country tabs.
Rockin Tabs
Are you looking for a site that has rock guitar tabs? Then Rockintabs.com is the place for you. It is a budding site with many rock guitar tabs. Submit your tab today.
Tab Gallery
Tab Gallery has a compilation of christian, rock, and country tabs all in one place. Come visit us.