Guitar Tabs
song title    band name

Join Us Today!

Don't strum alone...
be a part of the largest online Christian music community. Browse thousands of guitar tabs and chat w/ musicians like yourself.


It's Free!

This tab has been rated a 3.00 out of 5 for accuracy. (1 vote)Sorry, but you must be logged in to rate this tab.
Click here to log-in, or you can click here to register.
(Registration is free)

All songs owned by corresponding publishing company. If you make copies of any song on this website, be sure to report your usage to CCLI.
Submitted by: _slickshoes_

My First Stereo
FM Static

This is a really cool song by a really good band
This is my first tab, so i hope its good, if not im sorry, maybe someone
can fix it


      Intro-guitar 1
E/--------------------
B/--------------------
G/-------5-5--3-3--3-3
D/--3-3--5-5--3-3--3-3 X2
A/--3-3--3-3--1-1--1-1
E/--1-1------------1-1


E/-----------------------------------------
B/-----------------------------------------
G/-----------------------------------------
D/--8p7h8p7----8p7h8p7/----8p7h8p7----8p7--
A/---------8----------------------8------10
E/-----------------------------------------

well, thats all i got for now, if anyone has any more fm static tabs, or
relient k and slick shoes tabs, then could they please email them to me.

Comments about this tab

_slickshoes_ - 2004-04-19

The chords for the rhythm guitar are good, but here is how to play the lead in the intro

E/----------------------------------------
B/----------------------------------------
G/--2h3p2-----3p2-3p2-----2h3p2------3p2--
D/--------3---------------------3--------5
A/----------------------------------------
E/----------------------------------------

I will try and figure out the rest of the song and post it later


frinkadink90 - 2004-08-05

hey when it says - does that mean that u strum all the strings or ust the ones
- that have nummbers?
- - email me PLEASE!! skewedude51@yahoo.com
3
3
1


krutchfan66 - 2005-06-02

ya thats wut it means dude


Add a comment/correction

Complimentary Christian Ringtones
Dadamobile and CGR have teamed up to bring your favorite Christian artists right to your phone. Sign up today and get 10 complementary ringtones!
Tab Country
Did you know CGR has a sister site w/ country guitar tabs? Well we do! Its called Tab Country. It has a great archive with a lot of country tabs.
Rockin Tabs
Are you looking for a site that has rock guitar tabs? Then Rockintabs.com is the place for you. It is a budding site with many rock guitar tabs. Submit your tab today.
Tab Gallery
Tab Gallery has a compilation of christian, rock, and country tabs all in one place. Come visit us.