Guitar Tabs
song title    band name

Join Us Today!

Don't strum alone...
be a part of the largest online Christian music community. Browse thousands of guitar tabs and chat w/ musicians like yourself.


It's Free!

This tab has been rated a 3.00 out of 5 for accuracy. (5 votes)Sorry, but you must be logged in to rate this tab.
Click here to log-in, or you can click here to register.
(Registration is free)

All songs owned by corresponding publishing company. If you make copies of any song on this website, be sure to report your usage to CCLI.
Submitted by: highvoltage

Okay first off I know there's alot of Fireproof tabs up in here, but they
need (in my opinion) a few corrections.  Now I've never seen Pillar play
before, but I have played this with the CD before and it sounds pretty
accurate... so here goes...

Artist: Pillar
Song: Fireproof
Album: Fireproof
Transcription: Matthew Boyle
Copyright: 2003 MCA/Geffen Records

Tuning: Drop-D:: DADGBE

INTRO: (Heavy Distortion/Long Delay)
e-----|---------------|---------------|---------------|--------------|
B-----|---------------|---------------|---------------|--------------|
G-----|---------------|---------------|---------------|--------------|
D-----|0--------------|2--------------|3--------------|5-------------|
A-----|0--------------|2--------------|3--------------|5-------------|
D-----|0--------------|2--------------|3--------------|5-------------|
       palm mute......................................................


e-----|---------------|---------------|---------------|--------------|
B-----|---------------|---------------|---------------|--------------|
G-----|---------------|---------------|---------------|--------------|
D-----|0--------------|2--------------|3--------------|5-------------|
A-----|0--------------|2--------------|3--------------|5-------------|
D-----|0--------------|2--------------|3--------------|5-------------|
       palm mute......................................................
"It's about time to rock..."


e-----|---------------|---------------|---------------|--------------|
B-----|---------------|---------------|---------------|--------------|
G-----|---------------|---------------|---------------|--------------|
D-----|0--------------|2--------------|3--------------|5-------------|
A-----|0--------------|2--------------|3--------------|5-------------|
D-----|0--------------|2--------------|3--------------|5-------------|
       palm mute......................................................

e-----|---------------|---------------|---------------|--------------|
B-----|---------------|---------------|---------------|--------------|
G-----|---------------|---------------|---------------|--------------|
D-----|0--------------|2--------------|3--------------|5-------------|
A-----|0--------------|2--------------|3--------------|5-------------|
D-----|0--------------|2--------------|3--------------|5-------------|
       palm mute......................................................



"Here's a chance to show you how I feel..."
VERSES: (heavy distortion, delay lower)
e-----|---------------|---------------|---------------|--------------|
B-----|---------------|---------------|---------------|--------------|
G-----|---------------|---------------|---------------|--------------|
D-----|0-0---0--------|2-2---2--------|3-3---3--------|5-5---5-------|
A-----|0-0---0--------|2-2---2--------|3-3---3--------|5-5---5-------|
D-----|0-0---0--------|2-2---2--------|3-3---3--------|5-5---5-------|
       palm mute...................................................
                                                

e-----|---------------|---------------|---------------|--------------|
B-----|---------------|---------------|---------------|--------------|
G-----|---------------|---------------|---------------|--------------|
D-----|0-0---0--------|2-2---2--------|3-3---3--------|5-5---5-------|
A-----|0-0---0--------|2-2---2--------|3-3---3--------|5-5---5-------|
D-----|0-0---0--------|2-2---2--------|3-3---3--------|5-5---5-------|
       palm mute...................................................


PRECHORUS: (heavy distortion, long delay)
e-----|---------------|---------------|---------------|--------------|
B-----|---------------|---------------|---------------|--------------|
G-----|---------------|---------------|---------------|--------------|
D-----|0--------------|2--------------|3--------------|5-------------|
A-----|0--------------|2--------------|3--------------|5-------------|
D-----|0--------------|2--------------|3--------------|5-------------|
       palm mute......................................................

e-----|---------------|---------------|---------------|--------------|
B-----|---------------|---------------|---------------|--------------|
G-----|---------------|---------------|---------------|--------------|
D-----|0--------------|2--------------|3--------------|5-------------|
A-----|0--------------|2--------------|3--------------|5-------------|
D-----|0--------------|2--------------|3--------------|5-------------|
       palm mute......................................................

Right before the Chorus I do this, makes it sound pretty cool:
(Heavy Distortion, no delay, [should take about 1 second to do it])
e-----|---------------|
B-----|---------------|
G-----|---------------|
D-----|12/0-----------|
A-----|12/0-----------|
D-----|12/0-----------|



CHORUS: (Heavy distortion)
e-----|-------------------------------|---------------|--------------|
B-----|-------------------------------|---------------|--------------|
G-----|-------------------------------|---------------|--------------|
D-----|0----0------------0------------|--10--10-------|--5-5-5-------|
A-----|0----0------------0------------|--8---8--------|--3-3-3-------|
D-----|0----0-13p0h13p0--0--13p0h13p0-|--8---8--------|--3-3-3-------|


e-----|-------------------------------|---------------|--------------|
B-----|-------------------------------|---------------|--------------|
G-----|-------------------------------|---------------|--------------|
D-----|0----0------------0------------|--10--10-------|--5-5-5-------|
A-----|0----0------------0------------|--8---8--------|--3-3-3-------|
D-----|0----0-13p0h13p0--0--13p0h13p0-|--8---8--------|--3-3-3-------|


BRIDGE: (Heavy distortion)
e-----|-------------------------------|---------------|--------------|
B-----|-------------------------------|---------------|--------------|
G-----|-------------------------------|---------------|--------------|
D-----|8-8-8-8-8-8-8-8----------------|--5-5-5-5------|--3-3-3-3-----|
A-----|8-8-8-8-8-8-8-8----------------|--5-5-5-5------|--3-3-3-3-----|
D-----|8-8-8-8-8-8-8-8----------------|--5-5-5-5------|--3-3-3-3-----|

e-----|-------------------------------|---------------|--------------|
B-----|-------------------------------|---------------|--------------|
G-----|-------------------------------|---------------|--------------|
D-----|8-8-8-8-8-8-8-8----------------|--5-5-5-5------|--3-3-3-3-----|
A-----|8-8-8-8-8-8-8-8----------------|--5-5-5-5------|--3-3-3-3-----|
D-----|8-8-8-8-8-8-8-8----------------|--5-5-5-5------|--3-3-3-3-----|



KEY
p---pull-off
h---hammer
x---muffle
pm--palm mute
<---pick scrape down
>---pick scrape up

Hope this helps!

Comments about this tab

Josephde - 2004-06-21

Close, but sorry. Not near a 5.00. I have the tab book. If you want correct tabs-mail me at leadguitarist@gamebox.net


ChurchPunk 2 - 2005-03-07

I agree, I have the tab book, too. And in the beginning, Beckley dosen't say "It's about time to rock" he says "Its our time to rise". However, this is closer than most the tabs here.


JagoTiberan - 2006-05-01

It sounds pretty good not perfect and i dont make stupid comments like saying the wrong thing in the beginning


guitarcordfreak - 2006-07-13

pretty good. especially on the verse and pre-chorus. of course I wouldn't know if it sounds exacctally like the album cuz I don't own it but I have heard this song several times and it sounds pretty close. good job!!


Add a comment/correction

Complimentary Christian Ringtones
Dadamobile and CGR have teamed up to bring your favorite Christian artists right to your phone. Sign up today and get 10 complementary ringtones!
Tab Country
Did you know CGR has a sister site w/ country guitar tabs? Well we do! Its called Tab Country. It has a great archive with a lot of country tabs.
Rockin Tabs
Are you looking for a site that has rock guitar tabs? Then Rockintabs.com is the place for you. It is a budding site with many rock guitar tabs. Submit your tab today.
Tab Gallery
Tab Gallery has a compilation of christian, rock, and country tabs all in one place. Come visit us.