Guitar Tabs
song title    band name

Join Us Today!

Don't strum alone...
be a part of the largest online Christian music community. Browse thousands of guitar tabs and chat w/ musicians like yourself.


It's Free!

This tab has been rated a 4.42 out of 5 for accuracy. (12 votes)Sorry, but you must be logged in to rate this tab.
Click here to log-in, or you can click here to register.
(Registration is free)

All songs owned by corresponding publishing company. If you make copies of any song on this website, be sure to report your usage to CCLI.
Submitted by: sevensystem

Demon Hunter
“INFECTED”
© Solid State Records
Tabbed by sevensystem

* * * * * * *

Drop C Tuned Guitar

D
A
F
C
G
C


INTRO 

D------------------ REAPEAT 4x
A------------------
F ------------------
C -3-3-3-3----------
G -1-1-1-1--1-3-1-0-
C ----------1-3-1-0-


VERSE

D----------------  REAPEAT
A----------------
F ----------------
C -3--------------
G -1--1-0-1-3-1-0-
C ----1-0-1-3-1-0-

PRE CHORUS

D----------------  REAPEAT
A----------------
F ----------------
C -6--1------6--1-
G -6--1------6--1-
C -6--1------6--1-

CHORUS

D---------------------------------------------------------------  REAPEAT
A---------------------------------------------------------------
F ---------------------------------------------------------------
C -------8----------------8---------------4--------------4-------
G -6--6-----6-------6--6-----6------4--4----4------4--4----4-----
C -6----------6-----6-----------6---4----------4---4----------4--

BREAKDOWN PART 1

D--------------------  REAPEAT
A--------------------
F --------2-----------
C -1----------2-------
G -1--------------3---
C -1------------------

BREAKDOWN PART 2

D--------------------  REAPEAT
A--------------------
F ----------------2-----------
C -1----1-1-1--------2--------
G -1----1-1-1-----------3-----
C -1----1-1-1-----------------

Comments about this tab

sanctusfan14 - 2005-01-27

actually the verse is
------------------
------------------
-3----------------
-x----------------
-1----------------
---0-1-0-1-3-1-0--


chickensallad64 - 2005-05-16

u got it all wrong!!!!!!!!!

the intro is

D-8-8-8-8-3/1-0

and the verse is

8---------------
x---------------
D-8-0-1-0-1-3-1-0-

and the pre-c is

666666666666-111-55555555555
666666666666-111-55555555555
D-666666666666-111-00000000000

the c is
-------------6666666 wah effect
--8------8---6666666
-6-6-6--6-6--4444444 do how many times u think it is
D-6---6--6---6--------


BSFCanalWOH - 2005-06-19

HHMMMM....REAPEAT..... or .. :O REpeat U R A DUMMY


damonj - 2005-08-12

why dont you guys tab it then?


Jdillia - 2005-10-05

gosh!
leave the dude alone already!
it sounded good and heck..if u think u can do better
tab it yo-selves!!!!!!
peace out


death blade - 2006-03-17


i fink the intro goes like this


----------------------
----------------------
-2-2-2-2--------------
-2-2-2-2--------------
-0-0-0-0--3-1-3-1-----
----------3-1-3-1-----


and the verse goes like this


---------------------
---------------------
-2-------------------
-2-------------------
-0-------------------
---0-0-1-2-1-0-------


†never†alone† - 2006-09-03

geez, how much crap do u wanna give this guy? tab it urself if it is so wrong and you are so all-knowing.


StellarFreak - 2008-03-06

OK personally i like this tab BUT the verese riff was just a little off

F-3--------------
C-x--------------
G-1--------------
C--0-1-0-2-3-1-0-


Bagpiper95 - 2008-12-26

Anybody know how to convert these to sheet music for other instruments?


Add a comment/correction

Complimentary Christian Ringtones
Dadamobile and CGR have teamed up to bring your favorite Christian artists right to your phone. Sign up today and get 10 complementary ringtones!
Tab Country
Did you know CGR has a sister site w/ country guitar tabs? Well we do! Its called Tab Country. It has a great archive with a lot of country tabs.
Rockin Tabs
Are you looking for a site that has rock guitar tabs? Then Rockintabs.com is the place for you. It is a budding site with many rock guitar tabs. Submit your tab today.
Tab Gallery
Tab Gallery has a compilation of christian, rock, and country tabs all in one place. Come visit us.