Guitar Tabs
song title    band name

Join Us Today!

Don't strum alone...
be a part of the largest online Christian music community. Browse thousands of guitar tabs and chat w/ musicians like yourself.


It's Free!

This tab has been rated a 4.40 out of 5 for accuracy. (5 votes)Sorry, but you must be logged in to rate this tab.
Click here to log-in, or you can click here to register.
(Registration is free)

All songs owned by corresponding publishing company. If you make copies of any song on this website, be sure to report your usage to CCLI.
Submitted by: yik_

"Unbelievable"
Thousand Foot Krutch off they're album "Set it Off"


!Dropped D tuning!  -  EBGDAD

This tab isn't completly accurate and the rythmn isn't quite right I don't
think but it sounds great. It's the only one on this site with drop-d tuning.  

Intro Riff

E|---------------------------------------------------------------------|
B|---------------------------------------------------------------------|
G|---------------------------------------------------------------------|
D|--6---6----9--9-9-9--10-10-11-11---9--9-9-9--7-7-6-6---9--9-9-9-10-11|
A|--6---6----9--9-9-9--10-10-11-11---9--9-9-9--7-7-6-6---9--9-9-9-10-11|
D|--6---6----9--9-9-9--10-10-11-11---9--9-9-9--7-7-6-6---9--9-9-9-10-11|


Verse 1 Riff

E|--------------------------------------------------------------|
B|--------------------------------------------------------------|
G|--------------------------------------------------------------|
D|--6------------11----11---13--13--9--6---------------13-13----|listen to the
A|--6------------11----11---13--13--9--6--x5-last time-13-13----| cd and figure 
D|--6------------11----11---13--13--9--6---------------13-13----|it out



Chorus Riff


E|-------------------------------------------------------------|
B|-------------------------------------------------------------|
G|-------------------------------------------------------------|
D|---6--6---------6--6----------11----11----11--13-13-13--13---|
A|---6--6---------6--6----------11----11----11--13-13-13--13---|
D|---6--6---------6--6----------11----11----11--13-13-13--13---|

E|--------------------------------------------------------------|
B|--------------------------------------------------------------|
G|--------------------------------------------------------------|
D|---6--6---------6--6------9----11-----------------------------|
A|---6--6---------6--6------9----11-----------------------------|
D|---6--6---------6--6------9----11-----------------------------|

play intro twice after this part 


Verse 2

(not how it goes, just how I like to play it)

E|--------------------------------------------------------------|
B|--------------------------------------------------------------|
G|--------------------------------------------------------------|
D|--6-------------------9--11----11---11--13--13----9----6------|
A|--6----------------6--9--11----11---11--13--13----9----6------|
D|--6----4--5--6--6--6--9--11----11---11--13--13----9----6------|x5

3rd verse bass

chorus

God Bless

Comments about this tab

Josh Thomas - 2004-08-05

If you're too lazy to d-tune the low E can you just move that up two frets? So like instead of 666 it'd be 466.


JCook1023 - 2004-10-16

if your talking about playing it as if it were a regular power chord instead of a drop-d power chord (466xxx instead of 666xxx), then yes that would work until you hit the point where your playing all strings open or a 111 chord


akaukal - 2006-03-04

good point except the song doesn't do that and the drop d really isn't nescessary


SHARK - 2006-04-22

there is some lead in the 2nd verse


Dani_Boy - 2006-04-25

13th fret is a little bit high for a chord. It's playable, but it sounds better on the A string. I've written the main riff and the verse in a comment for SHARK's tab.


Add a comment/correction

Complimentary Christian Ringtones
Dadamobile and CGR have teamed up to bring your favorite Christian artists right to your phone. Sign up today and get 10 complementary ringtones!
Tab Country
Did you know CGR has a sister site w/ country guitar tabs? Well we do! Its called Tab Country. It has a great archive with a lot of country tabs.
Rockin Tabs
Are you looking for a site that has rock guitar tabs? Then Rockintabs.com is the place for you. It is a budding site with many rock guitar tabs. Submit your tab today.
Tab Gallery
Tab Gallery has a compilation of christian, rock, and country tabs all in one place. Come visit us.