Guitar Tabs
song title    band name

Join Us Today!

Don't strum alone...
be a part of the largest online Christian music community. Browse thousands of guitar tabs and chat w/ musicians like yourself.


It's Free!

This tab has been rated a 3.00 out of 5 for accuracy. (2 votes)Sorry, but you must be logged in to rate this tab.
Click here to log-in, or you can click here to register.
(Registration is free)

All songs owned by corresponding publishing company. If you make copies of any song on this website, be sure to report your usage to CCLI.
Submitted by: Shaneathin86

Artist: Skillet
Song: Cycle Down
Album: Collide

I got good feedback from my other tab, so i thought i'd take a stab at
another one. My oh my, i can't get enough Skillet i've listen to this CD
like a hundred times (literally) and it doesn't get old. This songs another
one of my favorites (theres about 8 or 9 of those on this cd). This like
other Skillet songs is in drop C# again. Sorry if that tuning bugs ya, but
its how it is.

Intro/ Fill 1
D#---------------------------------------------------------------------
A#---------------------------------------------------------------------
F#---7--------------9-----------10------------10/7--9/5----------------
C#---7--00--0---0---9--00--0--0-10--00--0--0--10/7--9/5----------------
G#---5--00--0---0---7--00--0--0--8--00--0--0---8/5--7/3----------------
C#------00--0---0------00--0--0-----00--0--0---------------------------


Verse part 1
D#---------------------------------------------------------------------
A#---------------------------------------------------------------------
F#---------------------------------------------------------------------
C#-------7-------5---------3-------7----------------------------------
G#-----5-------5---5-----3-------5---5---------------------------------
C#---7-------5---------3-------5---------------------------------------

Verse part 2
D#---------------------------------------------------------------------
A#---------------------------------------------------------------------
F#---------------------------------------------------------------------
C#---0000-----5555--55-------3333-----5555--55-------------------------
G#---0000-----5555--55-------3333-----5555--55-------------------------
C#---0000-----5555--55-------3333-----5555--55-------------------------
     PM................................................

Chorus                         |first time| second time|
D#-----------------------------|----------|----------------------------
A#-----------------------------|----------|----------------------------
F#-----------------------------|----------|----------------------------
C#---000---33--3--5---3h5--3h5-|-77-------|----88----------------------
G#---000---33--3--5---3h5--3h5-|-77-------|----88----------------------
C#---000---33--3--5---3h5--3h5-|-77-------|----88----------------------

Bridge
D#---------------------------------------------------------------------
A#---------------------------------------------------------------------
F#---------------------------------------------------------------------
C#---8888--8888--88--8888--8888--88----3333--3333--33--3333--3333--33--
G#---8888--8888--88--8888--8888--88----3333--3333--33--3333--3333--33--
C#---8888--8888--88--8888--8888--88----3333--3333--33--3333--3333--33--

Don't ask about the solo's Ben plays in the backround cause i don't do
that stuff. Even if i knew how to play it i probably couldn't.. i am but
a humble rhythm guitar.

Rundown
Intro/fill 1        x4
Verse part 1        x10
Verse part 2        x4  (joins part 1 after it plays 6x)
Chorus              x2
Intro/fill 1        x2
Verse part 1        x8
Verse part 2        x4  (joins part 1 after it plays 4x)
Chorus              x4
Bridge              x2
Chorus              x4
Intro/fill 1        x4

Well there ya have it. Thats the best i could do, and if u know how to play
it better then e-mail me i'd love to fix it. Skillet rocks, be panhead.
Questions? send them to Shaneathin86@Hotmail.com i like questions and
answering them.

                                                   -Shaner

Comments about this tab

No comments/corrections found. Add your own

Complimentary Christian Ringtones
Dadamobile and CGR have teamed up to bring your favorite Christian artists right to your phone. Sign up today and get 10 complementary ringtones!
Tab Country
Did you know CGR has a sister site w/ country guitar tabs? Well we do! Its called Tab Country. It has a great archive with a lot of country tabs.
Rockin Tabs
Are you looking for a site that has rock guitar tabs? Then Rockintabs.com is the place for you. It is a budding site with many rock guitar tabs. Submit your tab today.
Tab Gallery
Tab Gallery has a compilation of christian, rock, and country tabs all in one place. Come visit us.