Guitar Tabs
song title    band name

Join Us Today!

Don't strum alone...
be a part of the largest online Christian music community. Browse thousands of guitar tabs and chat w/ musicians like yourself.


It's Free!

This tab has not yet been rated for accuracy.Sorry, but you must be logged in to rate this tab.
Click here to log-in, or you can click here to register.
(Registration is free)

All songs owned by corresponding publishing company. If you make copies of any song on this website, be sure to report your usage to CCLI.
Submitted by: iceback

Artist: Five Iron Fenzy
Song: Blue Mix
Album: Five Iron Frenzy 2: Electric Boogaloo
Tabbed by: derek

^^ means bend
the underlined stuff is palm muted. 

verse:
E:------------------------------------------------------------------
B:------------------------------------------------------------------
G:------------------------------------------------------------------ 
D:------------------------------------------------------------------
A:-----12-12-12-12-12-11-11-11-11-7-9-10-9-7------------------------
E:-7-7---------------------------------------7----------------------
       ________       _____       __________
        pm            pm             pm

little fill at the end where the verse plays by iteself:
E:-----------------------------------------------------------------
B:-^14^-12---------------------------------------------------------
G:---------15------------------------------------------------------



as you can see not too difficult, but i could be wrong. i'll figure out the
rest later. enjoy everyone! 

any questions, just e-mail me at ska_agent5@yahoo.com

Comments about this tab

No comments/corrections found. Add your own

Complimentary Christian Ringtones
Dadamobile and CGR have teamed up to bring your favorite Christian artists right to your phone. Sign up today and get 10 complementary ringtones!
Tab Country
Did you know CGR has a sister site w/ country guitar tabs? Well we do! Its called Tab Country. It has a great archive with a lot of country tabs.
Rockin Tabs
Are you looking for a site that has rock guitar tabs? Then Rockintabs.com is the place for you. It is a budding site with many rock guitar tabs. Submit your tab today.
Tab Gallery
Tab Gallery has a compilation of christian, rock, and country tabs all in one place. Come visit us.