Guitar Tabs
song title    band name

Join Us Today!

Don't strum alone...
be a part of the largest online Christian music community. Browse thousands of guitar tabs and chat w/ musicians like yourself.


It's Free!

This tab has not yet been rated for accuracy.Sorry, but you must be logged in to rate this tab.
Click here to log-in, or you can click here to register.
(Registration is free)

All songs owned by corresponding publishing company. If you make copies of any song on this website, be sure to report your usage to CCLI.
Submitted by: roguenine19

Title: The Bathroom is a Creepy Place for Pictures of your Friends
Artist: twothirtyeight
Album: You Should Be Living
Tabbed By; roguenine19@hotmail.com
copyright 2002 thirsty moon River Publishing (ASCAP) and Soft Rock Audio
Publishing (ASCAP)

Verse/Intro
E-------------------------------------------
B-0--0-2-2---------------0--2-2-2-----------
G-2--2-2-2----------6-6--2—-2-2-2-----------
D-2--2-2-2----6---4-6-6--2--2-2-2--4-2h4-4-4
A-----------4---4---4-4------------4-----4-4
E-------------------4-4------------2-----2-2

Prechorus (“…and pictures line the walls…”)
Asus2 Asus2 Bsus2 C#sus2

Chorus (“…the bathroom is a creepy place…”)
E E Asus2 Am

Ending
E---0---0h2p0-3-2-0-----0-------------------
B-------------------2---0-------------------
G-----------------------1-------------------
D-2---2-----------------2-------------------
A-----------------------2-------------------
E-----------------------0-------------------
Chords:
E-------0-----2-----4---------0------0----------
B-------0-----2-----4---------0------1----------
G-------2-----4-----6---------1------2----------
D-------2-----4-----6---------2------2----------
A-------0-----2-----4---------2------0----------
E-------0-----2-----4---------0------0----------
Asus2	Bsus2	C#sus2	E	Am

Comments about this tab

guitarist1393 - 2006-06-15

Cool


Add a comment/correction

Complimentary Christian Ringtones
Dadamobile and CGR have teamed up to bring your favorite Christian artists right to your phone. Sign up today and get 10 complementary ringtones!
Tab Country
Did you know CGR has a sister site w/ country guitar tabs? Well we do! Its called Tab Country. It has a great archive with a lot of country tabs.
Rockin Tabs
Are you looking for a site that has rock guitar tabs? Then Rockintabs.com is the place for you. It is a budding site with many rock guitar tabs. Submit your tab today.
Tab Gallery
Tab Gallery has a compilation of christian, rock, and country tabs all in one place. Come visit us.