Guitar Tabs
song title    band name

Join Us Today!

Don't strum alone...
be a part of the largest online Christian music community. Browse thousands of guitar tabs and chat w/ musicians like yourself.


It's Free!

This tab has been rated a 3.50 out of 5 for accuracy. (6 votes)Sorry, but you must be logged in to rate this tab.
Click here to log-in, or you can click here to register.
(Registration is free)

All songs owned by corresponding publishing company. If you make copies of any song on this website, be sure to report your usage to CCLI.
Submitted by: pillarfreak

i think this is right but if theres anything you think should be different
email me at militia@quixnet.net
heres the long awaited tab further from myself

Further
Pillar 

Intro 
E-----------------------------------------------------------------------9-
B-----------------------------------------------------------------------9-
G----------------9-11----------------------------------------9-11---11----
D----9-11-9-11----------9-11-9-11-9-12-----9-11-9-11--------11------------
A9--------------------9----------------------9---------------------9-----
D-0--------------------0----------------------0-----------------------x---

Verse
D-7-7-7-7-7-9-9-9-9-9
A-7-7-7-7-7-9-9-9-9-9
D-0-0-0-0-0-0-0-0-0-0
Repeat through verse

PRE-chorus
E----------------------
B----------------------
G--------5-----7------
D-------5-5-----7-7----
A0h3-----3/5----------
D----------------------

Chorus
B
G-------------------7-x-
D-11-9-7-11-9-7-5-x--7--
A--9-7-59-7-5-3-x--5---
D--9-7-59-7-5---x--5---

Bridge

E----------------
B----------------
G----4-----2-----
D4----44-------
A-2--0h2------2--
D----------------

Comments about this tab

dandesmond - 2004-11-05

This is probably the most accurate tab so far as its in Drop D. Not many others know that ;)


Void_zero - 2005-01-04

does anybody know the way they play it on the EP? Its different if you watch the EP video.
Dan


Add a comment/correction

Complimentary Christian Ringtones
Dadamobile and CGR have teamed up to bring your favorite Christian artists right to your phone. Sign up today and get 10 complementary ringtones!
Tab Country
Did you know CGR has a sister site w/ country guitar tabs? Well we do! Its called Tab Country. It has a great archive with a lot of country tabs.
Rockin Tabs
Are you looking for a site that has rock guitar tabs? Then Rockintabs.com is the place for you. It is a budding site with many rock guitar tabs. Submit your tab today.
Tab Gallery
Tab Gallery has a compilation of christian, rock, and country tabs all in one place. Come visit us.