Guitar Tabs
song title    band name

Join Us Today!

Don't strum alone...
be a part of the largest online Christian music community. Browse thousands of guitar tabs and chat w/ musicians like yourself.


It's Free!

Earthsuit - One Time

This tab has not yet been rated for accuracy.Sorry, but you must be logged in to rate this tab.
Click here to log-in, or you can click here to register.
(Registration is free)

All songs owned by corresponding publishing company. If you make copies of any song on this website, be sure to report your usage to CCLI.
One Time
Earthsuit
Album: Kaleidoscope Superior
C2000 Sparrow records
Tab by Steve Cruickshank (postlambjam@hotmail.com)
(CD: $5 Sampler)


Intro: D5 D5      D5 D5

Then: Stuff in Dm
e------------------------------------5-------5-------5---------
B---6-------6-------6-------6------6-------6-------6-------6---
G---7---5---7---5---7---5---7------7---5---7---5---7---5---7---
D---7-7-----7-7-----7-7-----7------7-------7-------7-------7---
A--------------------------------------------------------------
E--------------------------------------------------------------



Verse:  Dm, until you hear it change to Gm, then Dm again


Chorus:
Gm  F  Dm
Gm  F  Dm


Post-chorus rap:
e-----------------------------------------------------------
B---6-6---6-6-----------6-6---8-8---------------------------
G---7-7---7-7----and----7-7---7-7---------------------------
D---7-7---7-7-----------7-7---7-7---------------------------
A-----------------------------------------------------------
E-----------------------------------------------------------

Then: with wahwah
e-----------------------------------------------------------
B---6/8-8--8\6-6--6/8-8--8\6-6------------------------------
G-----------------------------------------------------------
D-----------------------------------------------------------
A-----------------------------------------------------------
E-----------------------------------------------------------


Bridge (bass) D   G   F#   F


Solo:
e--------------------------------------------------------------
B---10~~----11-13-------------10~~----11-13---------10h11p10---
G------------------12-10---------------------12-10-------------
D-------------------------/12----------------------------------
A--------------------------------------------------------------
E--------------------------------------------------------------
----Gm             Dm         Gm             Dm



Sorry for the lack of lyrics, I got it from a music sampler I
got at a music festival.  The whole song is in Dm, (if youre not
sure what to play at a certain part, chances are its Dm)
I tried to put all the parts on here, hopefully you can figure
out what goes where

Comments about this tab

No comments/corrections found. Add your own

Complimentary Christian Ringtones
Dadamobile and CGR have teamed up to bring your favorite Christian artists right to your phone. Sign up today and get 10 complementary ringtones!
Tab Country
Did you know CGR has a sister site w/ country guitar tabs? Well we do! Its called Tab Country. It has a great archive with a lot of country tabs.
Rockin Tabs
Are you looking for a site that has rock guitar tabs? Then Rockintabs.com is the place for you. It is a budding site with many rock guitar tabs. Submit your tab today.
Tab Gallery
Tab Gallery has a compilation of christian, rock, and country tabs all in one place. Come visit us.