Guitar Tabs
song title    band name

Join Us Today!

Don't strum alone...
be a part of the largest online Christian music community. Browse thousands of guitar tabs and chat w/ musicians like yourself.


It's Free!

Eager - Touch

This tab has not yet been rated for accuracy.Sorry, but you must be logged in to rate this tab.
Click here to log-in, or you can click here to register.
(Registration is free)

All songs owned by corresponding publishing company. If you make copies of any song on this website, be sure to report your usage to CCLI.
Title: Touch
Album/Artist: Eager
Copyright: Questar/Mission Records

This song, among others, is tuned a half step down. Just plain
ole' distortion. You can figure the chorus rythym by yourself.
R1 is played three times and then play R2 four times. Then play
the verse.-Kent-

       Cmaj7                             E5     G5
R1  E------0---0-----0---0--      R2  A--2-1-2-/5-5-5-5--
    B------0---0-----0---0--          E--0-0-0-/3-3-3-3--
    G------4---4-----4---4--
    D--2-2-------2-2--------
    A--3-3-------3-3--------
    E-----------------------

       Am              Am7
R3  E--0-0-0---0-0-0---3-3-3-3-3-3-3--
    B--1-1-1---1-1-1---1-1-1-1-1-1-1--
    G--2-2-2---2-2-2------------------
    D--2-2-2---2-2-2------------------
    A--0-0-0---0-0-0------------------
    E---------------------------------        

       F  Am D5 F   G                              F  Am D5 F
R4 
E------------------------------------------------------------------   
B--1--5-----1-------0-----0-----0-----0--------1--5-----1----------   
G--2--5--7--2-----0-----0-----0-----0-----0----2--5--7--2----------   
D--3--7--7--3--/5-----4-----2-----0------------3--7--7--3----------   
A--3--7--5--3---------------------------3---2--3--7--5--3----------   
E------------------------------------------------------------------

       E5
R5 
A------------------------------------------------------------------   
E--0-0-0-0--/12~--0-0-0-0--/12~--0-0-0-0--/12~--0-0-0-0--/12~------
R6 
A------------------------------------------------------------------   
E--0-0-0-0--/12~--0-0-0-0--/12~--0-0-0-0--/12~--0-0-0-0--10b12-----

      R2                                 R3
Ver.1 Danger ahead its always been said the night is watching,
waitng 
 
                               R2
      For us to turn it's way instead.

      R4
Cho.1 And when the day is over the very thoughts I fear have
come to         Visit me so clear beyond the third dimension
beyond what I can         See I cannot touch what touches me.   

      R2                               R3
Ver.2 Under my skin the feelings begin I know you're there, I
sense you

                                     R2
      The air is thick where it was thin.

      R4
Cho.2 So I rebuke the darkness and I lift up my fear believing
they          Will disappear beyond the third dimension beyond
what I can see I 
      Cannot touch what touches me.

Bri.  R1 4x, R5, R1 2x, R6

      R3
Int.  The night is watching waiting for us to turn.

Play chorus 1 then the outro.

      F G  D5       F
Out.       I cannot touch what touches me.

Comments about this tab

No comments/corrections found. Add your own

Complimentary Christian Ringtones
Dadamobile and CGR have teamed up to bring your favorite Christian artists right to your phone. Sign up today and get 10 complementary ringtones!
Tab Country
Did you know CGR has a sister site w/ country guitar tabs? Well we do! Its called Tab Country. It has a great archive with a lot of country tabs.
Rockin Tabs
Are you looking for a site that has rock guitar tabs? Then Rockintabs.com is the place for you. It is a budding site with many rock guitar tabs. Submit your tab today.
Tab Gallery
Tab Gallery has a compilation of christian, rock, and country tabs all in one place. Come visit us.