Guitar Tabs
song title    band name

Join Us Today!

Don't strum alone...
be a part of the largest online Christian music community. Browse thousands of guitar tabs and chat w/ musicians like yourself.


It's Free!

This tab has been rated a 2.67 out of 5 for accuracy. (6 votes)Sorry, but you must be logged in to rate this tab.
Click here to log-in, or you can click here to register.
(Registration is free)

All songs owned by corresponding publishing company. If you make copies of any song on this website, be sure to report your usage to CCLI.
Submitted by: Ben Stewart

Three Days Later
FM Static

E------------------------------------------------------------------------------
B------------------------------------------------------------------------------
G----5-5---------------2-0-2-3-3-2-3-2-0----5-5---------2-2-2-2-3-2-0----------
D--3-----5-5-x2---3-5---------------------3-----5-5-x2-------------------------
A------------------------------------------------------------------------------
E------------------------------------------------------------------------------

Comments about this tab

drummer4Static - 2004-05-20

i have know idea where this fits in!


the intro you put seems like it belongs to the bass...


switchfootkrutc - 2004-07-28

I think he put the guitar solo thats what it sounds like


Austino590 - 2004-08-09

it's the solo obviously but it's not nearly correct


ampt71888 - 2004-09-01

its the solo and im sure it goes
-------------------------------------------------------------------------
-------------------------------------------------------------------------
------88---------88--------5-3-5-6-5-3-6-5-3----88-------88---5-5-5-6-5-3
---6--- 88---6-----88--6--8------------------6----88--6----88------------
-------------------------------------------------------------------------
-------------------------------------------------------------------------


BaruchG12 - 2005-07-09

hey wats up im new here so can someone teach me wat tabs r?
yea im a loser!


natasha03 - 2006-02-23

on the strings there are e,a,d,g,b,e, those on your string from top to bottom
the number that it says on the string you go to that fret and that string.
its easy


Add a comment/correction

Complimentary Christian Ringtones
Dadamobile and CGR have teamed up to bring your favorite Christian artists right to your phone. Sign up today and get 10 complementary ringtones!
Tab Country
Did you know CGR has a sister site w/ country guitar tabs? Well we do! Its called Tab Country. It has a great archive with a lot of country tabs.
Rockin Tabs
Are you looking for a site that has rock guitar tabs? Then Rockintabs.com is the place for you. It is a budding site with many rock guitar tabs. Submit your tab today.
Tab Gallery
Tab Gallery has a compilation of christian, rock, and country tabs all in one place. Come visit us.