Guitar Tabs
song title    band name

Join Us Today!

Don't strum alone...
be a part of the largest online Christian music community. Browse thousands of guitar tabs and chat w/ musicians like yourself.


It's Free!

This tab has been rated a 3.88 out of 5 for accuracy. (8 votes)Sorry, but you must be logged in to rate this tab.
Click here to log-in, or you can click here to register.
(Registration is free)

All songs owned by corresponding publishing company. If you make copies of any song on this website, be sure to report your usage to CCLI.
Submitted by: Jeromey84

“Will You” by P.O.D.

 
Intro/Chorus (Truby uses a Chorus sound with the Distortion)     
                                 
D||-----------------------------------------|-----------------------||
A||-----------------------------------------|-----------------------||
F||-11-11-11--14-14-14--11-11-11--14-14-14--|---------------7776----||
C||--x--x—-x---x--x--x---x--x--x---x--x--x--|-10-10-10-----------7--||
G||--9--9--9--12-12-12---9--9--9--12-12-12--|-10-10-10------------7-||
D||---------------------10-10-10------------|--8—-8—-8\---5---------||
                                                                 
                                                        
Verse                                            
D||-----------------------------------------------------------------||
A||---------------------------12-12-12-12-12--------10-10-10-10-10--||
F||----------------------------x--x—-x--x--x---------x—-x--x—-x—-x--||
C||-9999-------5555------------9—-9--9--9--9---------7—-7--7—-7--7--||
G||-7777--7-9--3333-5-7--7777-----------------7777------------------||
D||----------------------5555-----------------5555------------------||
                                                          

Bridge                                                     
D||-------------------------------|-----0----------------0-----0----||
A||-------------------------------|-----0----------------0-----0----||
F||-------------------------------|-----9----------------5-----6----||
C||--10-10-10-10-10-10-10-10-10---|-----9----------------5-----7----||
G||---8--8--8--8--8--8--8--8--8---|--7--------5\-2---2-3-------7----||
D||-------------------------------|--------7------3---------5-------||


Verse(Clean) 2x
Verse

Outro                                               
D||-----------------------------|------------------------------|-----||
A||-----------------------------|------------------------------|-----||
F||-11-11--11-11--11-11--11-11--|------------------7-6-----7-6-|-11--||
C||--x--x--x--x----x--x---x--x--|------------------------------|--x--||
G||--9--9--9--9----9--9---9--9--|-10-10-10-10------------------|--9--||
D||---------------10-10--10-10--|--8--8--8—-8\---5-------5-----|-----||

Comments about this tab

Metallistically - 2004-02-07

This seems like a Truby song. It's his playing style.


Metallistically - 2004-03-14

Remember that on tuning in the Key of A (Low D,G,C,F,A,D) has the same powerchord form as tuning in the Key of G (Standard{Low E,A,D,G,B,E).


Add a comment/correction

Complimentary Christian Ringtones
Dadamobile and CGR have teamed up to bring your favorite Christian artists right to your phone. Sign up today and get 10 complementary ringtones!
Tab Country
Did you know CGR has a sister site w/ country guitar tabs? Well we do! Its called Tab Country. It has a great archive with a lot of country tabs.
Rockin Tabs
Are you looking for a site that has rock guitar tabs? Then Rockintabs.com is the place for you. It is a budding site with many rock guitar tabs. Submit your tab today.
Tab Gallery
Tab Gallery has a compilation of christian, rock, and country tabs all in one place. Come visit us.