Guitar Tabs
song title    band name

Join Us Today!

Don't strum alone...
be a part of the largest online Christian music community. Browse thousands of guitar tabs and chat w/ musicians like yourself.


It's Free!

This tab has been rated a 4.44 out of 5 for accuracy. (9 votes)Sorry, but you must be logged in to rate this tab.
Click here to log-in, or you can click here to register.
(Registration is free)

All songs owned by corresponding publishing company. If you make copies of any song on this website, be sure to report your usage to CCLI.
Submitted by: Xakep_INC

Jesus, Lover of My Soul
Hillsong United Live - Best Friend
Transcribed by Danny P.

Instrumental:
C         Dadd9      Em     C (x2)

Intro:
C         Dadd9      Em     C (x4)

Instrumental:
Em  Dadd9 D G

Verse I:
G      D
Em     C
G      D
Em
C

 

Verse II:

G      D
Em     C
Em     D/F#
G      C
Em     D/F#   G      C    
Em     D/F#   C

Verse I   - 1x
Verse II   - 2x
Intro 
Verse I   - 1x
Verse II   - 1x

Here are the specific fingerings for the chords in the intro:

===C====Dadd9=Em==
E--0----0----0---
B--5----7----8---
G--5----7----9---
D--5----7----9---
A--x----x----x---
E--x----x----x---

Comments about this tab

sid_x - 2004-06-30

The fingering for the intro is actually this way.....
E----x----x----0----
A----3----5----7----
B----5----7----9----
C----0----0----0----
D----5----7----8----
E----0----0----0----


Xakep_INC - 2004-09-30

Well, but then you need to retune the guitar.. My chords are for the standart tuning.
Because if I wasn't recording the song, I wouldn't bother to change tunings for a single song play.


turkweed - 2004-10-08

this is how I play the intro, just incase anyone cares...lol
e---0---0---0--
B---5---7---8--
G---0---0---0--
D---5---7---9--
A------(5)--10-
E-------^-------
I really can't tell if they play that 5 or not, so you can decide what ever sounds good to you.


jude - 2005-07-09

One really cool way to do the intro is as such, and it sounds great! (at least on acoustic)

C D G C
e-0---0---0---0--
b-0---0---0---0--
G-9--11--12---9--
D10--12--12--10--
A10--12--10--10--
E-8--10---x---8--

give it a shot!


rockstar_91 - 2005-07-20

Hey does anybody have the chords and the lyrics to god of all creation by united live?


maxwee - 2005-08-16

God of All Creation is by Hillsongs Austrailia....if anyone has the chords for this though...I'd love to get them!!


shongsta - 2005-12-30

Turkweed, that was an AMAZING intro tab.....you gave me the ear to listen to the song and find the real intro...and just letting you know, you do play the 5...the intro tab is...

e---0---0---0--
B---5---7---8--
G---0---0---0--
D---5---7---9--
A---3---5---10-
E--------------

If you have trouble, the easiest way to play this is how...
1. Keep your index finger on the A string
2. Keep your ring finger on the D string
3. Keep your pinky by the B...and your middle finger by the B....so that when it goes 80910, you can just remove your pinky finger and replace it with the middle finger to change the B to an 8 instead of keeping it a 9....

Thnx again turkweed!! your a lifesaver!!


terence999 - 2006-01-15

Urm... for the Intro, I used this

C D Em Am
e---0---2---0---0
B---1---3---0---1
G---0---2---0---2
D---2---0---2---2
A---3---0---2---0
E-----------0----

God bless! =)


shongsta - 2006-02-06

The true intro is

e---0---0---0--
B---5---7---8--
G---0---0---0--
D---5---7---9--
A---3---5---7--
E--------------

The other Jesus lover of my soul tab was kinda wrong...i put a 10 where the 7 is but thats the real intro....The chords on the other hand are right


ldiaz811 - 2011-02-10

i believe this one sounds closest to the real intro try it:

E---0---0---0---0---0---0---0---0---
B---5---7---8---5---5---7---8---5---
G---0---0---0---0---0---0---0---0---
D---5---7---9---5---5---7---9---5---
A---X---5--10---X---3---5--10---X---
E---X---X---X---X---X---X---X---X---


Add a comment/correction

Complimentary Christian Ringtones
Dadamobile and CGR have teamed up to bring your favorite Christian artists right to your phone. Sign up today and get 10 complementary ringtones!
Tab Country
Did you know CGR has a sister site w/ country guitar tabs? Well we do! Its called Tab Country. It has a great archive with a lot of country tabs.
Rockin Tabs
Are you looking for a site that has rock guitar tabs? Then Rockintabs.com is the place for you. It is a budding site with many rock guitar tabs. Submit your tab today.
Tab Gallery
Tab Gallery has a compilation of christian, rock, and country tabs all in one place. Come visit us.