Guitar Tabs
song title    band name

Join Us Today!

Don't strum alone...
be a part of the largest online Christian music community. Browse thousands of guitar tabs and chat w/ musicians like yourself.


It's Free!

This tab has been rated a 1.50 out of 5 for accuracy. (2 votes)Sorry, but you must be logged in to rate this tab.
Click here to log-in, or you can click here to register.
(Registration is free)

All songs owned by corresponding publishing company. If you make copies of any song on this website, be sure to report your usage to CCLI.
Submitted by: Shaneathin86

This is off Skillets new cd Collide, which rocks! if u don't have it yet go
get it, it's worth the cash trust me. Its in Drop C# tuning so make sure ya
fix that before playing the tab.

Intro/fill 1/outro
D#-----------------------------------------------------------------
A#-----------------------------------------------------------------
F#--7-----------9------------10-------------10/7-9/5---------------
C#--7---000-0---7---000-0-----8----000-0-----8/7-7/3---------------
G#--5---000-0---7---000-0-----8----000-0-----8/5-7/3---------------
C#------000-0-------000-0----------000-0---------------------------

Verse                            x4                                   x4
D#---------------------------------|-----------------------------------
A#---------------------------------|-----------------------------------
F#---------------------------------|-----------------------------------
C#------7-----5--------3------5----|---0000--5555--55--3333--5555--55--
G#----5-----5---5----3------5---5--|---0000--5555--55--3333--5555--55--
C#--7-----5--------3------5--------|---0000--5555--55--3333--5555--55--

Chorus (i'm a little iffy on this part)
D#-----------------------------------------------------------------
A#-----------------------------------------------------------------
F#-----------------------------------------------------------------
C#--000--77-33--5-3h5-3h5--77--------------------------------------
G#--000--77-33--5-3h5-3h5--77--------------------------------------
C#--000--77-33--5-3h5-3h5--77--------------------------------------

Bridge                                          x(i didn't count)
D#-----------------------------------------------------------------
A#-----------------------------------------------------------------
F#-----------------------------------------------------------------
C#--8888--8888--888--8888--8888-888--3333-3333-333-3333-3333-333---
G#--8888--8888--888--8888--8888-888--3333-3333-333-3333-3333-333---
C#--8888--8888--888--8888--8888-888--3333-3333-333-3333-3333-333---

There ya have it. I don't by any stretch of the imagination claim that this
is 100% correct some parts are better then others i just thought i'd do what
i could =) E-mail me if u find something wrong. Shaneathin86@Hotmail.com

                                                       -Shaner

Comments about this tab

joellaw44 - 2004-03-06

Chorus
0-3-5-8
0-3-5-8
0-3-5-8


Add a comment/correction

Complimentary Christian Ringtones
Dadamobile and CGR have teamed up to bring your favorite Christian artists right to your phone. Sign up today and get 10 complementary ringtones!
Tab Country
Did you know CGR has a sister site w/ country guitar tabs? Well we do! Its called Tab Country. It has a great archive with a lot of country tabs.
Rockin Tabs
Are you looking for a site that has rock guitar tabs? Then Rockintabs.com is the place for you. It is a budding site with many rock guitar tabs. Submit your tab today.
Tab Gallery
Tab Gallery has a compilation of christian, rock, and country tabs all in one place. Come visit us.