Guitar Tabs
song title    band name

Join Us Today!

Don't strum alone...
be a part of the largest online Christian music community. Browse thousands of guitar tabs and chat w/ musicians like yourself.


It's Free!

This tab has been rated a 4.38 out of 5 for accuracy. (8 votes)Sorry, but you must be logged in to rate this tab.
Click here to log-in, or you can click here to register.
(Registration is free)

All songs owned by corresponding publishing company. If you make copies of any song on this website, be sure to report your usage to CCLI.
Submitted by: Jeff_Hayden

Mood Rings

Alright, I saw other versions on the web but I didn't really like the style
or version of it so I decided to do it myself so here it is
Jeff

(Verse 1)
e----------------------------------------------------------------------
B-----------------------------------------9----9----------7-----7------
G---8----1----1---------4-----4------8----9----9-------8-----8-----8---
D---9----2----2-------4-----1---1----9----6----6-----------------------
A---7---------0-----2----------------7---------0-----9-----------------
E----------------------------------------------------------------------

(Pre-Chorus)
e------------------------------------------------
B------------------------------------------------
G--------------666666666--------------44444444---
D---44444444---666666666---66666666---44444444---
A---44444444---444444444---66666666---22222222---
E---22222222---------------44444444--------------

(Chorus)
e-----------------------------------------------
B-----------------------------------------------
G-------------------------99999999---99999999---  (2x)
D---77777777---99999999---99999999---99999999---
A---77777777---99999999---77777777---66666666---
E---55555555---77777777------------------------- 

e-------------------------
B-------------------------
G-------------------------
D---77777777---99999999---
A---77777777---99999999---
E---55555555---77777777---

(Chorus Outro)
e-----------------------------------------------
B-----------------------------------------------
G---99999999------------------------------------  (4x)
D---99999999---99999999---77777777---99999999---
A---77777777---99999999---77777777---99999999---
E--------------77777777---55555555---77777777---

(Verse 1)
e----------------------------------------------------------------------
B-----------------------------------------9----9-----------7-------7---
G---8----1----1---------4-----4------8----9----9-------7-------8-------
D---9----2----2-------4-----1--------9----6----6-----------------------
A---7---------0-----2----------------7---------0-----9-----------------
E----------------------------------------------------------------------

(Pre-Chorus)
e------------------------------------------------
B------------------------------------------------
G--------------666666666--------------44444444---
D---44444444---666666666---66666666---44444444---
A---44444444---444444444---66666666---22222222---
E---22222222---------------44444444--------------

(Chorus)
e-----------------------------------------------
B-----------------------------------------------
G-------------------------99999999---99999999---  (2x)
D---77777777---99999999---99999999---99999999---
A---77777777---99999999---77777777---66666666---
E---55555555---77777777------------------------- 

e-------------------------
B-------------------------
G-------------------------
D---77777777---99999999---
A---77777777---99999999---
E---55555555---77777777---

(Chorus Outro)
e-----------------------------------------------
B-----------------------------------------------
G---99999999------------------------------------  (4x)
D---99999999---99999999---77777777---99999999---
A---77777777---99999999---77777777---99999999---
E--------------77777777---55555555---77777777---

e----------------------------------------------------------
B----------------------------------------------------------
G---99999999-----------------------------------------------  
D---99999999---99999999---77777777---11111111---99999999---
A---77777777---99999999---77777777---11111111---99999999---
E--------------77777777---55555555---99999999---77777777---
                                         |
                                         |(11111111 are elevens)

e-----------------------------------------------
B-----------------------------------------------
G---99999999------------------------------------  (2x)
D---99999999---99999999---77777777---10101010---
A---77777777---99999999---77777777---10101010---
E--------------77777777---55555555---88888888---
                                        |
                                        |(1010101010 are tens)
(Bridge)
e----------------------------------------------------------------
B----------------------------------------------------------------
G----------------------------------------------------------------
D----6-6-4-4----2-2-6-6-4-4-4-------6-6-4-4----2-2-2-2-2-2-2-2---
A----7-7-6-6----4-4-7-7-6-6-6-------7-7-6-6----4-4-4-4-4-4-4-4---
E----------------------------------------------------------------

e------------------------------------
B------------------------------------
G---66666666-------------------------
D---66666666---99999999---77777777---
A---44444444---99999999---77777777---
E--------------77777777---55555555---

(Outro)
e-----------------------------------------------------
B--9------9-----7------7-----5------5-----8-------8--- 
G------9-------------8------------6-------------9-----
D------------------9------------7------------10-------
A--7--------------------------------------------------
E---------------7------------5------------8-----------

e-----------------------------------------------------
B---------------7------7-----5------5-----8-----8-----
G--9-----9-----------8------------6-----------9-------  (2x)
D------11----------9------------7-----------10--------
A----11-----------------------------------------------   
E--9------------7------------5------------8-----------  
                                          ^^^^^^^^^^^^
                                          Lightly Strum 2nd time

Comments about this tab

21Frets - 2005-01-12

Isn't there an intro? Very good job. 5.00!


sack - 2005-01-22

Hey.
Actually, there is no intro in this song. Have you ever heard it? If not then how can you rate it 5.0?
Anyway, the verse is good. Nice ear. But the Pre-chorus and chorus aren't right.
But... the ending with the picking seemed right. That was hard for me to pick up. Good job man. Keep it up.
Will


jkim519 - 2006-01-18

Technically the intro is just chords


Down In Flames - 2006-02-02

i'd have to agree w/ sack


TrinityVoice - 2006-04-03

I dont know why you got the rating you did. Im giving you a 5.0


Twigguitar_1992 - 2006-04-08

not liking it too much. especially the ending. try this:
e|------------------------------------------------------------------------------
B|-9---9-7---7-------5---4-----4-4-----4-3-----3-2-----2-1-----1----------------
G|---9-----8-------6---6-----5-------5-------4-------3-------2------------------
D|-------------7-7---------6-------6-------5-------4-------3--------------------
A|-7----------------------------------------------------------------------------
E|-------7-----5---------4-------4-------3-------2-------1----------------------

e|------------------------------------------------------------------------------
B|-9-------9-7-----7-------5---4-----4-4-----4-3-----3-2-----2-1----------------
G|------10-------8-------6---6-----5-------5-------4-------3---2----------------
D|---11--------9-----7-7---------6-------6-------5-------4-----3----------------
A|------------------------------------------------------------------------------E|-9---------7-------5---------4-------4-------3-------2-------1----------------


Twigguitar_1992 - 2006-04-08

SORRY 'BOUT UP THERE. I'LL JUST SUBMIT A NEW SONG.


Twigguitar_1992 - 2006-04-08

never mind. i'm not smart enough to figure everything out 'bout "making a tab."
sorry.


Twigguitar_1992 - 2006-04-08

not liking it too much. especially the ending. try this:
e|----------------------------------------------------------------
B|-9---9-7---7-------5---4-----4-4-----4-3-----3-2-----2-1-----1--
G|---9-----8-------6---6-----5-------5-------4-------3-------2----
D|-------------7-7---------6-------6-------5-------4-------3------
A|-7--------------------------------------------------------------
E|-------7-----5---------4-------4-------3-------2-------1--------

e|----------------------------------------------------------------
B|-9-------9-7-----7-------5---4-----4-4-----4-3-----3-2-----2-1--
G|------10-------8-------6---6-----5-------5-------4-------3---2--
D|---11--------9-----7-7---------6-------6-------5-------4-----3--
A|----------------------------------------------------------------
E|-9---------7-------5---------4-------4-------3-------2-------1--


Twigguitar_1992 - 2006-04-08

something weird happened wit' my computer. forget everything i said exept this and the good tab.


Twigguitar_1992 - 2006-06-02

god bless


5isakoolnumber - 2007-04-18

im not exaclty as good as relient k (far from it lol)
but really the intro and chorus ......if u listen i think theres more sliding.
but good try
god bless


5isakoolnumber - 2007-04-18

correction
(there is no intro i ment verse 1)


Add a comment/correction

Complimentary Christian Ringtones
Dadamobile and CGR have teamed up to bring your favorite Christian artists right to your phone. Sign up today and get 10 complementary ringtones!
Tab Country
Did you know CGR has a sister site w/ country guitar tabs? Well we do! Its called Tab Country. It has a great archive with a lot of country tabs.
Rockin Tabs
Are you looking for a site that has rock guitar tabs? Then Rockintabs.com is the place for you. It is a budding site with many rock guitar tabs. Submit your tab today.
Tab Gallery
Tab Gallery has a compilation of christian, rock, and country tabs all in one place. Come visit us.