Guitar Tabs
song title    band name

Join Us Today!

Don't strum alone...
be a part of the largest online Christian music community. Browse thousands of guitar tabs and chat w/ musicians like yourself.


It's Free!

This tab has been rated a 4.20 out of 5 for accuracy. (5 votes)Sorry, but you must be logged in to rate this tab.
Click here to log-in, or you can click here to register.
(Registration is free)

All songs owned by corresponding publishing company. If you make copies of any song on this website, be sure to report your usage to CCLI.
Submitted by: msvdo

David Crowder Band
Come Thou Fount
Tabbed by msvdo
(Capo turned around backwards on the 2nd fret, or cut capo)

Come thou fount ....
---------------------------------
---------------------------------
----------2-----2------2---------
2h4p2-2---0-----0--2h4-0-2---2---
0-0-0-0---0-----0--0-0-0-0---0---
0-0-0-0---0-----0--0-0-0-0---0---

Tune my heart ....
---------------------------------
---------------------------------
----2h4-4-----2-----------2----2-
2h4-0-0-0-----0--2h4p2-2--0----0-
0-0-0-0-0-----0--0-0-0-0--0----0-
0-0-0-0-0-----0--0-0-0-0--0----0-

Streams of mercy ....
---------------------------------
---------------------------------
-----------2--2------2-----------
2h4p2---2--0--0--2h4-0-2--2------
0-0-0---0--0--0--0-0-0-0--0------
0-0-0---0--0--0--0-0-0-0--0------

Call for songs ....
---------------------------------
---------------------------------
-----2h4-4-----2-----------2---2-
2h4--0-0-0-----0---2h4p2-2-0---0-
0-0--0-0-0-----0---0-0-0-0-0---0-
0-0--0-0-0-----0---0-0-0-0-0---0-

Teach me some ....
---------------------------------
---------------------------------
-----2h4-4/7--6-4h6p2-4-2--------
2h4--0-0-0-0--0-0-0-0-0-0-4------
0-0--0-0-0-0--0-0-0-0-0-0-0------
0-0--0-0-0-0--0-0-0-0-0-0-0------

Sung by flaming ....
---------------------------------
---------------------------------
----2h4-4/7--6--4h6p2---7-7------
2h4-0-0-0-0--0--0-0-0---0-0------
0-0-0-0-0-0--0--0-0-0---0-0------
0-0-0-0-0-0--0--0-0-0---0-0------

Praise the mount ....
------------------------------------
------------------------------------
------------2----2---------2--------
2h4p2---2---0----0---2h4---0--2--2--
0-0-0---0---0----0---0-0---0--0--0--
0-0-0---0---0----0---0-0---0--0--0--

Mount of Thy ....
-------------------------------
-------------------------------
-----2h4-4---2----------2---2--
2h4--0-0-0---0--2h4p2-2-0---0--
0-0--0-0-0---0--0-0-0-0-0---0--
0-0--0-0-0---0--0-0-0-0-0---0--

Comments about this tab

Rockone03 - 2004-07-30

actually, you can play the song with the capo normal on the second fret...and play this... D..A..G for the verses....then D(so teach me some melodious sonnet, sung by flamming toungue above)..then still stay on D till..praise the mount Im fixed upon(A) it, mount of (G)thy redeeming love(D).......


lukeduke8706 - 2004-09-18

it sounds so much better just playing it w/ no capo as (E) (B) (A) (E) as barchords letting your top B and A strings stay open and ring the whole time


Wes - 2004-12-15

if you can do this right, with the rhythm and keeping some strings muted, it sounds great.


main st. - 2005-02-14

Crowder plays this song in the open Ab tuning...EbAbEbEbBbEb. remember david always tunes his gtr's 1/2 step down and capo's at the 1st fret for key of E. Eb is better suited to his voice. his sunburst anderson (Crowdster)gtr. is always tuned in this way.


Add a comment/correction

Complimentary Christian Ringtones
Dadamobile and CGR have teamed up to bring your favorite Christian artists right to your phone. Sign up today and get 10 complementary ringtones!
Tab Country
Did you know CGR has a sister site w/ country guitar tabs? Well we do! Its called Tab Country. It has a great archive with a lot of country tabs.
Rockin Tabs
Are you looking for a site that has rock guitar tabs? Then Rockintabs.com is the place for you. It is a budding site with many rock guitar tabs. Submit your tab today.
Tab Gallery
Tab Gallery has a compilation of christian, rock, and country tabs all in one place. Come visit us.