Guitar Tabs
song title    band name

Join Us Today!

Don't strum alone...
be a part of the largest online Christian music community. Browse thousands of guitar tabs and chat w/ musicians like yourself.


It's Free!

This tab has not yet been rated for accuracy.Sorry, but you must be logged in to rate this tab.
Click here to log-in, or you can click here to register.
(Registration is free)

All songs owned by corresponding publishing company. If you make copies of any song on this website, be sure to report your usage to CCLI.
Song: I Cannot Smile
Artist: Dust Eater Dogs
Tabbed by:    Jussi Pajunpää (jussipajunpaa@hotmail.com)
              Kimmo Klemola (kimmo_klemola@hotmail.com)

This is an awesome HC-song from an awesome band. DED rocks, but 
                                                 GOD rocks even more!!!

 Visit Dust Eater Dogs' OFFICIAL homepage: http://bride.pp.utu.fi/~ded


Tune your guitar one step down to D. Thank you!

   Intro                                                                      
E|--8-------8-----------|--8-------8-----------|
B|-------7-------7------|-------7-------7------|
G|----------------------|----------------------|
D|----------------------|----------------------|
A|----------------------|----------------------|
D|----------------------|----------------------|


   Verse                                                              
E|--8----------------|--------------------|---------------------|
B|-------------------|--10----------------|--7------------------|
G|-------------------|--------------------|---------------4h-5--|
D|-------------------|--------------------|---------------------|
A|-------------------|--------------------|---------------------|
D|-------------------|--------------------|---------------------|


E|----------------------|
B|----------------------|
G|--5-------5-----------|
D|-------4-------4------|
A|----------------------|
D|----------------------|
 

   Chorus
E|--------------------------|--------------------------|         
B|--------------------------|--------------------------|
G|--------------------------|--------------------------|
D|--5--5-------5--5---------|--5--5-------5--5---------|
A|--3--3--4----3--3--4------|--3--3--4----3--3--4------|
D|--------2----------2------|--------2----------2------|


   Riff A
E|--------------------------|--------------------------|
B|--------------------------|--------------------------|
G|--------------------------|--------------------------|
D|--------------------------|--------------------------|
A|--2--4--5--2--4--5--2--4--|--5--2--4--5--2--4--5--2--|
D|--0--2--3--0--2--3--0--2--|--3--0--2--3--0--2--3--0--|


E|--------------------------|
B|--------------------------|
G|--------------------------|
D|--------------------------|
A|--4--5--2--4--5--2--4--5--|
D|--2--3--0--2--3--0--2--3--|

   Outra Riff                                                       
E|--------------------------|--------------------------|
B|--------------------------|--------------------------|
G|--------------------------|--------------------------|
D|--6--6-------6--6---------|--6--6-------6--6---------|
A|--4--4--5----4--4--5------|--4--4--5----4--4--5------|
D|--------3----------3------|--------3----------3------|

Song Order:

Drum full
Intro riff x4
Intro riff & Verse riff x2
Chorus riff x2
Intro riff & Verse riff x2
Chorus riff x4
Riff A x4
Intro riff x2
Intro riff & Verse riff x2
Chorus riff x4
Outro riff x4

Comments about this tab

No comments/corrections found. Add your own

Complimentary Christian Ringtones
Dadamobile and CGR have teamed up to bring your favorite Christian artists right to your phone. Sign up today and get 10 complementary ringtones!
Tab Country
Did you know CGR has a sister site w/ country guitar tabs? Well we do! Its called Tab Country. It has a great archive with a lot of country tabs.
Rockin Tabs
Are you looking for a site that has rock guitar tabs? Then Rockintabs.com is the place for you. It is a budding site with many rock guitar tabs. Submit your tab today.
Tab Gallery
Tab Gallery has a compilation of christian, rock, and country tabs all in one place. Come visit us.