Guitar Tabs
song title    band name

Join Us Today!

Don't strum alone...
be a part of the largest online Christian music community. Browse thousands of guitar tabs and chat w/ musicians like yourself.


It's Free!

This tab has not yet been rated for accuracy.Sorry, but you must be logged in to rate this tab.
Click here to log-in, or you can click here to register.
(Registration is free)

All songs owned by corresponding publishing company. If you make copies of any song on this website, be sure to report your usage to CCLI.
Song: Shovel
Artist: Dumpster
Album: See Through Me
Song By: Dumpster(nelson/darnill/langella)
gray dot songs(BMI), Bulletproof Music
Tabbed By: William Giacchi (axeman@iolvegas.com)

First off, I got the song off the Toast and Olive sampler, so I don’t
have the lyrics or anything. I just like the song and stumbled across the 
music while playing one day, so I decided to tab it. There are two
guitars I think, one clean and one semi-distorted. During the arpeggio 
parts, lightly pick the strings on the semi-distorted(which veils the 
distortion), then strum normally in the chorus. In other words, use 
good pick dynamics with the distorted guitar. 

Intro/Verse:
Gtr.1 (clean)
-------------------------------------------------------------------
-------------------------------------------------------------------
------------------4-4-4-4-4-4-4-4----4-4-4-4-4-4-4--4-4-4-4-4-4-4-4
-6-6-6-6-6-6-6-6--6-6-6-6-6-6-6-6--6-6-6-6-6-6-6-6--6-6-6-6-6-6-6-6
-4-4-4-4-4-4-4-4--4-4-4-4-4-4-4-4--4-4-4-4-4-4-4-4--4-4-4-4-4-4-4-4
-------------------------------------5-5-5-5-5-5-5--5/6-6-6-6-6-6-6

Gtr.2 (semi-distorted) comes in second time
------0-----------------0------------------------------------------
---0-----------------0---------------------------------------------
-6--------6--------6-----------------------------------------------
-------------------------------------------------------------------
-------------------------------------------------------------------
-------------------------------------------------------------------

Pre-chorus:
Gtr.1
----------------------------------|--------------------------------
----------------------------------|--------------------------------
-----0-------0--------0---4---3---|--------------------------------
---6---6---6---6--------6---6---6-|--------------------------------
-4-------4--------0-0-------------|--------------------------------
----------------------------------|--------------------------------

Gtr.2
----------------------------------|-0-0-0-0-0-0-0-0--0-0-0-0-0-0-0-0
----------------------------------|-0-0-0-0-0-0-0-0--0-0-0-0-0-0-0-0
----------------------------------|-4-4-4-4-4-4-4-4--3-3-3-3-3-3-3-3
----------------------------------|-4-4-4-4-4-4-4-4--4-4-4-4-4-4-4-4
----------------------------------|-2-2-2-2-2-2-2-2--2-2-2-2-2-2-2-2
----------------------------------|---------------------------------

Chorus:
Gtr.1
----------------------------------|----------------------------------
----------------------------------|-0--------2-------0------2--------
-------4b6r4-4b6-4/6--------------|-----3--------3------3-------3----
----------------------4-----------|----------------------------------
----------------------------------|----------------------------------
----------------------------------|----------------------------------




Gtr.2
-----------------------------|----------------------------------
-4-44-4--4-44--0-00-0--0-00--|-0-0-0-0-0-0-0-0--0-0-0-0-0-0-0-0-
-6-66-6--6-66--2-22-2--2-22--|-4-4-4-4-4-4-4-4--4-4-3-3-3-3-4-3-
-6-66-6--6-66--2-22-2--2-22--|-4-4-4-4-4-4-4-4--4-4-4-4-4-4-4-4-
-4-44-4--4-44--0-00-0--0-00--|-2-2-2-2-2-2-2-2--2-2-2-2-2-2-2-2-
-----------------------------|----------------------------------

The bridge is just a distorted version of the intro/verse. 

Outro: repeated several times on both guitars.
------
-4-4-6
-4-4-6
-4-4-6
-2-2-4
------

That's about all for the song. Comments and corrections at the e-mail 
address above. God bless.

Comments about this tab

No comments/corrections found. Add your own

Complimentary Christian Ringtones
Dadamobile and CGR have teamed up to bring your favorite Christian artists right to your phone. Sign up today and get 10 complementary ringtones!
Tab Country
Did you know CGR has a sister site w/ country guitar tabs? Well we do! Its called Tab Country. It has a great archive with a lot of country tabs.
Rockin Tabs
Are you looking for a site that has rock guitar tabs? Then Rockintabs.com is the place for you. It is a budding site with many rock guitar tabs. Submit your tab today.
Tab Gallery
Tab Gallery has a compilation of christian, rock, and country tabs all in one place. Come visit us.