Guitar Tabs
song title    band name

Join Us Today!

Don't strum alone...
be a part of the largest online Christian music community. Browse thousands of guitar tabs and chat w/ musicians like yourself.


It's Free!

This tab has been rated a 4.27 out of 5 for accuracy. (11 votes)Sorry, but you must be logged in to rate this tab.
Click here to log-in, or you can click here to register.
(Registration is free)

All songs owned by corresponding publishing company. If you make copies of any song on this website, be sure to report your usage to CCLI.
Submitted by: Jon2jt

Only You
David Crowder Band

Stanza 1: Intro
e-----------------------------------------------------------------------------
B--------------1--------1h3-----3--------------------3--------5h3--1--0-------
G----------0---------0-----------------0----------0--------0-------------2--0-
D-----0h2---------2----------2-----2---------0---------0----------------------
A--3---------------------------------------2----------------------------------
E-----------------------------------------------------------------------------

e-----------------------------------------------------------------------------
B---------------1---------0h1-------5----------------------1------------------
G----------------------0--------2------------------------------22h0--0-----0-
D------------------2--------------------2-------------2h3----------------2----
A--0--0h2h3-------------------------------------0h3---------------------------
E-------------------------------------------1---------------------------------

Stanza 2: Intro
e-----------------------------------------------------------------------------
B--------------1---------1h3-----3-------------------3--------5h3--1--0-------
G-----------0---------0-----------------0---------0--------0-------------2--0-
D-----0h2---------2-----------2-----2---------0--------0----------------------
A--3----------------------------------------2---------------------------------
E-----------------------------------------------------------------------------

e-----------------------------------------------------------------------------
B-------------1----------0h1-----5------------------------0h1---1h3---3h1---1-
G--------------------0--------2-------------------------------------------0---
D----------------2------------------2---------------2h3-----------------------
A--0---0h2h3----------------------------------0h3-----------------------------
E----------------------------------------1------------------------------------

Comments about this tab

aznechelon - 2004-02-28

It's tuned a half step down on the Illuminate CD.


aznechelon - 2004-03-29

Oops...my bad...it's not. But a lot of Illuminate is.


IncuThrice07 - 2004-08-13

I'm pretty sure it's not hammer on's on those real quick parts...it's sweep picking of the chord...except for when it goes to F and it does a hammer on midway through the sweep picking.


Lytener - 2004-09-25

I'm pretty sure this song is capoed at 5, playing it G there. I'll try to work off of your guys tabs to make a ptab or ascii tab. All credit will be made to you guys.


Lytener - 2004-09-25

Okay make that a special capo. The one supposedly Tim Hughes uses as well. It Capos just A-D-G, or was it A-D. I'll let you know.


ChristainPepper - 2005-03-19

I agree with all of that except on the hammer, it's just switching the chords faster than the rest


Matthew_Low - 2005-04-03

This song IS played with the hammer ons. And it has no capo on it. There are a couple hammer ons as well, David Crowder does play some strings in succession to make it sound like a hammer on at certain times. I am certain about this. Me and five other guy's in my youth group performed this song a week ago, with all the parts of David Crowder's voice at the end.


guitarguy1020 - 2005-04-15

I think there are hammer ons and no capo just standard E


tg-m - 2005-09-19

There is a regular 6 string capo on 3 and a short cut capo on 5 (the short cut capo covers the a d g strings.. i'm playing it with the cd right now.. it's the right thing..


shongsta - 2006-02-16

Everyone keeps putting 5h3...its not 5h3, its a 5p3...you can only hammer if the first number is lower than the second....what i do, i play the E string and go back to the three...sounds much more crisp


Add a comment/correction

Complimentary Christian Ringtones
Dadamobile and CGR have teamed up to bring your favorite Christian artists right to your phone. Sign up today and get 10 complementary ringtones!
Tab Country
Did you know CGR has a sister site w/ country guitar tabs? Well we do! Its called Tab Country. It has a great archive with a lot of country tabs.
Rockin Tabs
Are you looking for a site that has rock guitar tabs? Then Rockintabs.com is the place for you. It is a budding site with many rock guitar tabs. Submit your tab today.
Tab Gallery
Tab Gallery has a compilation of christian, rock, and country tabs all in one place. Come visit us.