Guitar Tabs
song title    band name

Join Us Today!

Don't strum alone...
be a part of the largest online Christian music community. Browse thousands of guitar tabs and chat w/ musicians like yourself.


It's Free!

This tab has not yet been rated for accuracy.Sorry, but you must be logged in to rate this tab.
Click here to log-in, or you can click here to register.
(Registration is free)

All songs owned by corresponding publishing company. If you make copies of any song on this website, be sure to report your usage to CCLI.
Artist: Dryve
Song: Nervous
Album: 5 Minute Walk fall sampler CD Vol. II
Tabbed by: Jake Standifer jakeman4@hotmail.com
Copyright: 5Minute Walk Records Sampler (fall) '96

Drop-D tuning (DADGBe)

Guitar 1
--------------------
--------------------
--------------------  Riff 1
--6----4-----3------
------------------4-
--------------------

Guitar 2
-----------------------------------
------6-----6-----6------6h7p6-----
-6h8----6h8---6h8----6h8-------8p6-
-----------------------------------
-----------------------------------
-----------------------------------

Verse
(4)--x--(4)--x-
(4)--7--(4)--x-
-6---6---6---x-
-6---4---6---6-   on 2nd verse guitar 2 plays these chords but he plays them 
-4---4---4---6-   using the power chords and he palm mutes it.
-x---4---x---6-

Chorus
-x--x-----x--x-
-x--7-----x--x-
-6--6-----6--x-
-6--4-x3--6--6-   the ending of the chorus at app. 1:58 he just goes
-4--4-----4--6-                                                    -4---4----
-x--4-----x--6-                                                    ---4---6--

Bridge
-x--x-x-x--x--x----  -x-
-x--x-x-x--x--x----  -x-
-x--x-x-x--x--x----  -x-    
-4--6h8p6--4--1----  -4-   *(below) on the rapid strum part in the solo you may
-4--6h8p6--4--1-x3-  -4-  end on    want to individually pick each of the 2 
-4--6h8p6--4--1----  -4-  strings as quickly as possible instead of strumming

Solo
------------------------------------------------------------------------------
------------------------------------------------------------------------6--6--
-----6-8b-----6-6-----6-8p6-8-8-8p6----------6-8b-----6---------6-8p6-8--8--8-
-6-6------6-6-----6-6---------------8p6--6-6------6-6---8p6-6-6---------------
------------------------------------------------------------------------------
------------------------------------------------------------------------------
 rapid strum, x? *(above)
-------------------9-11-13-11-9-9-11-13-9-11-13/14-13-11 9-14 13-11-13h14-14/16
-6666666h8p66666---------------------------------------------------------------
-8888888-8-88888-6~~~~---------------------------------------------------------
-------------------------------------------------------------------------------
-------------------------------------------------------------------------------
-------------------------------------------------------------------------------
                 *harmonic maybe?                                *
-16-16---16/?------------------------16-16-16---16/?--------------------------
-----14-14--14-14-14-14-16-16-14p13h14------14-14--14-14-14-14-16-16-14p13h14-
------------------------------------------------------------------------------
------------------------------------------------------------------------------
------------------------------------------------------------------------------
------------------------------------------------------------------------------

After the solo just palm mute C#5(x466xx) and F# (444xxx)

Then go back into Chorus and end on C#5.  That's it!

Comments about this tab

No comments/corrections found. Add your own

Complimentary Christian Ringtones
Dadamobile and CGR have teamed up to bring your favorite Christian artists right to your phone. Sign up today and get 10 complementary ringtones!
Tab Country
Did you know CGR has a sister site w/ country guitar tabs? Well we do! Its called Tab Country. It has a great archive with a lot of country tabs.
Rockin Tabs
Are you looking for a site that has rock guitar tabs? Then Rockintabs.com is the place for you. It is a budding site with many rock guitar tabs. Submit your tab today.
Tab Gallery
Tab Gallery has a compilation of christian, rock, and country tabs all in one place. Come visit us.