Guitar Tabs
song title    band name

Join Us Today!

Don't strum alone...
be a part of the largest online Christian music community. Browse thousands of guitar tabs and chat w/ musicians like yourself.


It's Free!

This tab has been rated a 4.50 out of 5 for accuracy. (4 votes)Sorry, but you must be logged in to rate this tab.
Click here to log-in, or you can click here to register.
(Registration is free)

All songs owned by corresponding publishing company. If you make copies of any song on this website, be sure to report your usage to CCLI.
Submitted by: goolia007

Beauty of Simplicity
Telecast

verse:  E  B  C#m  B  A  B  E

chorus:  E  B  F#m  A  

Bridge:  F#m  G#m  Am  (3x)   F#m  B  E


F#m:  244xxx
G#m:  466xxx
Am:   577xxx


"Sing to Him a new song"  Psalm 33:3

Sing praises to our God Most High, for He is glorified!

Comments about this tab

chronicles1289 - 2004-04-08

F#m G#m Am
These chords should be played as actual bar chords. It sounds better that way.
Rock On!


BranOhMac - 2004-08-12

If you want a guitar to play harmony, which can rock when added on to this song, the second guitar would play these chords capoed on the second fret. E=D, B=Asus, C#m=Bm, A=G, F#m=Em. Great tab!


Sanjuro - 2004-10-18

I play it like these, it's the way it's played on the CD. Sounds awesome!

Capo 4th fret

Verse:
C B/G Am
G F
G C

Chorus:
C G Dm F
C G Dm F
C

Bridge:
F Dm C
B/G F
Dm G C


Sanjuro - 2004-10-18

The B/G should be a G/B.

Oh and here's the tab for G/B

G/B - x20033


Hawaiian_Guy - 2005-05-20

Just wanted to say, Telecast have the chord chart for this song with the lyrics on their website: http://www.telecastmusic.com/main.html
It says there its:
C B/C Am G F G C
for the Verses.
Look on their website for the rest

God Bless
Hawaiian_Guy


ironwrship - 2005-06-23

In the bridge I believe it goes to an A instead of a Am. It probably just a type-o


jsenyo - 2005-06-29

Try this:

e|--------------|--------------|--------------|--------------|--------------|
b|--9--9--9--9--|--4--4--4--4--|--5--5--5--5--|--4--4--4--4--|--2--2--2--2--|
g|--9--9--9--9--|--4--4--4--4--|--6--6--6--6--|--4--4--4--4--|--2--2--2--2--|
d|--------------|--------------|--------------|--------------|--------------|
a|--7-----7-----|--2-----2-----|--4-----4-----|--2-----2-----|--0-----0-----|
e|--------------|--------------|--------------|--------------|--------------|

....You get the idea.

For 6th string root power chords an example would be...

e|--------------|
b|--------------|
g|--2--2--2--2--|
d|--4--4--4--4--|
a|--------------|
e|--2-----2-----|

This is to simulate the piano parts


jsenyo - 2005-06-29

Try this:

e|------------|------------|------------|------------|------------|
b|-9--9--9--9-|-4--4--4--4-|-5--5--5--5-|-4--4--4--4-|-2--2--2--2-|
g|-9--9--9--9-|-4--4--4--4-|-6--6--6--6-|-4--4--4--4-|-2--2--2--2-|
d|------------|------------|------------|------------|------------|
a|-7-----7----|-2-----2----|-4-----4----|-2-----2----|-0-----0----|
e|------------|------------|------------|------------|------------|...

....You get the idea.

For 6th string root power chords an example would be...

e|--------------|
b|--------------|
g|--2--2--2--2--|
d|--4--4--4--4--|
a|--------------|
e|--2-----2-----|

This is to simulate the piano parts


jsenyo - 2005-06-30

Sorry - I didn't have my guitar..(please ignore my last two entries)

e|-----------------|-----------------|-----------------|
b|-9---9---9---9---|-4---4---4---4---|-5---5---5---5---|
g|-9---9---9---9---|-4---4---4---4---|-6---6---6---6---|
d|---9---9---9---9-|---4---4---4---4-|---6---6---6---6-|
a|-7-------7-------|-2-------2-------|-4-------4-------|
e|-----------------|-----------------|-----------------|...etc

....You get the idea (follow the chords for this song).

For 6th string root power chords an example would be...

e|------------------|
b|------------------|
g|--2---2---2---2---|
d|--4---4---4---4---|
a|----4---4---4---4-|
e|--2-------2-------|

This is to simulate the piano parts


_bingy_ - 2006-09-17

this is exacty right...I was gonna post this song but this is what i was gonna put on there. I have the cd and i learned it from the cd. So i might as well not post this song.


Add a comment/correction

Complimentary Christian Ringtones
Dadamobile and CGR have teamed up to bring your favorite Christian artists right to your phone. Sign up today and get 10 complementary ringtones!
Tab Country
Did you know CGR has a sister site w/ country guitar tabs? Well we do! Its called Tab Country. It has a great archive with a lot of country tabs.
Rockin Tabs
Are you looking for a site that has rock guitar tabs? Then Rockintabs.com is the place for you. It is a budding site with many rock guitar tabs. Submit your tab today.
Tab Gallery
Tab Gallery has a compilation of christian, rock, and country tabs all in one place. Come visit us.