Guitar Tabs
song title    band name

Join Us Today!

Don't strum alone...
be a part of the largest online Christian music community. Browse thousands of guitar tabs and chat w/ musicians like yourself.


It's Free!

This tab has been rated a 4.57 out of 5 for accuracy. (7 votes)Sorry, but you must be logged in to rate this tab.
Click here to log-in, or you can click here to register.
(Registration is free)

All songs owned by corresponding publishing company. If you make copies of any song on this website, be sure to report your usage to CCLI.
Submitted by: highvoltage

----------------------------------------------------------------------------
			     REMEMBER (I.O.U.) - Big Dismal
----------------------------------------------------------------------------
Tabbed by: Matthew Boyle
Email: highvoltage90567@hotmail.com

Tuning: 1/2 Step Down

Intro + Verses:

      Em7                   C       Am
eb|-------------0----------------------------------------------------------|
Bb|---------3-----3-------3-------1-------1p0------------------------------|
Gb|-------0---0-----0---0-------0-------2-----2p0--------------------------|
Db|-----2-------------2-------2-------2------------------------------------|
Ab|-------------------------3-------0--------------------------------------|
Eb|---0--------------------------------------------------------------------|

Chorus:
(strum chords)

Em7 C Am (x2)


Bridge:
(strum chords)

Em7 - D - Em7 - D - Em7 - D - C - D



Song Progression:
Intro
Verse 1
Chorus
Verse 2
Chorus
Bridge
Verse 1 (only first two lines)
Chorus
Chrous

Chords: ~
Em7 -- 022030
D ---- XX0232
C ---- X32010
Am --- X02210

I think that's right, the only part I was having trouble with was the "Am"
part of the intro and verses.  If you have any suggestions/comments email
me with the subject "Remember Tab", also if you know the correct way to
play it email me and I will correct it.  Thanks and God bless!

Comments about this tab

Unduion - 2004-03-08

The Am can be used....just...wobble it a bit....can't think of any other way of saying it...


JC_music07 - 2004-07-15

the intro doesnt sound quite right, heres what i play.. it sounds a little closer, good job on the rest though

eb|-------------0----------------------------------------------------------|
Bb|---------3-----3---3-------------1-----------1p0------------------------|
Gb|-------0---0-----0---0---------0---0-------2-----1p0--------------------|
Db|-----2-----------------2-0---2-------2---2------------------------------|
Ab|---------------------------3-----------0--------------------------------|
Eb|---0--------------------------------------------------------------------|


JC_music07 - 2004-07-15

the intro doesnt sound quite right, heres what i play.. it sounds a little closer, good job on the rest though

eb|-------------0----------------------------------------------------|
Bb|---------3-----3---3-------------1-----------1p0------------------|
Gb|-------0---0-----0---0---------0---0-------2-----1p0-------------|
Db|-----2-----------------2-0---2-------2---2-----------------------|
Ab|---------------------------3-----------0-------------------------|
Eb|---0-------------------------------------------------------------|

sorry about the last post, made it to big.. and i dunno how to edit it or watever lol


JC_music07 - 2004-07-15

the intro doesnt sound quite right, heres what i play.. it sounds a little closer, good job on the rest though

eb|-------------0---------------------------------------------------|
Bb|---------3-----3---3-------------1-----------1p0-----------------|
Gb|-------0---0-----0---0---------0---0-------2-----1p0-------------|
Db|-----2-----------------2-0---2-------2---2-----------------------|
Ab|---------------------------3-----------0-------------------------|
Eb|---0-------------------------------------------------------------|

sorry about the last post, made it to big.. and i dunno how to edit it or watever lol


ghost4jc - 2006-08-19

hey guys you are all really close with the intro but the correct way to play it is like this...
E---0------------------------------
A----------------3---2p0-----------
d----2---------2--2-----2----------
g-----0-0---0-0-0--0-----2---2p0---
b------3---3-3------1-----1p0------
e---------0------------------------

That is what it sounds like in the song


guitarfreak8106 - 2007-01-11

eb|-------------0------------------------------------------------------|
Bb|---------3-----3---3-------------1-----------0-1p0------------------|
Gb|-------0---0-----0---0---------0---0-------2-------2p0--------------|
Db|-----2-----------------2-0---2-------2------------------------------|
Ab|---------------------------3-----------0----------------------------|
Eb|---0----------------------------------------------------------------|

good job with tabbing & all that, but this is how i play it


Add a comment/correction

Complimentary Christian Ringtones
Dadamobile and CGR have teamed up to bring your favorite Christian artists right to your phone. Sign up today and get 10 complementary ringtones!
Tab Country
Did you know CGR has a sister site w/ country guitar tabs? Well we do! Its called Tab Country. It has a great archive with a lot of country tabs.
Rockin Tabs
Are you looking for a site that has rock guitar tabs? Then Rockintabs.com is the place for you. It is a budding site with many rock guitar tabs. Submit your tab today.
Tab Gallery
Tab Gallery has a compilation of christian, rock, and country tabs all in one place. Come visit us.