Guitar Tabs
song title    band name

Join Us Today!

Don't strum alone...
be a part of the largest online Christian music community. Browse thousands of guitar tabs and chat w/ musicians like yourself.


It's Free!

This tab has not yet been rated for accuracy.Sorry, but you must be logged in to rate this tab.
Click here to log-in, or you can click here to register.
(Registration is free)

All songs owned by corresponding publishing company. If you make copies of any song on this website, be sure to report your usage to CCLI.
Brown Paper Bag
Driver Eight
Tabbed by Andy Smith (andyns@juno.com)
Driver Eight is a Christian band signed to Tooth and Nail Records
High e is back up and running, after a few minor problems everything is fine.
Join in the fun give send 
your e-mail address and a little note saying why you want to be in
highe and you will get TABs e-mailed to you.

	
Intro/verse riff
 E5       D5                        C5                B5
-----------------------------------------------------------------------------
-----------------------------------------------------------------------------
-13-------11------13--------11------10------10--------8------10-------8------
-14--(x5)-12-(x6)-14--(x5)--12-(x6)-11-(x3)-11-(x6)---9-(x3)-11-(x3)--9-(x6)-
-14-------12------14--------12------11------11--------9------11-------9------
-12-------10------12--------10-------8-------8--------7-------8-------7------

Riff  2
e-----------------------------------------------------------------
B-----------------------------------------------------------------
G------------------------11-12-11--------------------11--12-11-12-
D------12-----12-12-12-12-------------12-----12-12-12--12---------
A-10-12--10-12-------------------10-12--10-12---------------------
E-----------------------------------------------------------------

e---------------------------------------------------
B---------------------------------------------------
G-11-9-7-11-12-14-12-11-12-11-----------------------
D-----------------------------9-7-11-12-14-12-11-12-
A---------------------------------------------------
E---------------------------------------------------


Verse 1 (play riff 1)
You love to sit it down
you hold your tired ground
so far from lookin'
so far from truckin'

Vs 2 (riff 1)
You said it's a crazy time
I set across your mind
so fine for others
you'll find another
inside it's not the same

Chorus (strumming ain't exact)
 G        E   D  C    D B5
---------------------------
---------------------------
-4-4-4-4--1---7--5-5--7-4--
-5-5-5-5--2---7--5-5--7-4--
-5-5-5-5--2---5--3-3--5-2--
-3-3-3-3--0----------------

Had enough of you
had enough of you-it's true
	Repeat 
	
	Riff 2

Verse 3 (play riff 1)
It's in my paperbag
I know it's such a drag
so far from lookin'
so far from truckin'

Verse 4 (riff 1)
     You said you know you well
I said that I can't tell
you'll find another
yuo found another
inside it's not the same

Chorus

Bridge
D5--C5-B5--G5
I will see your love (suffering)
I will see your fire (burning)
	Repeat

Riff 2
Verses 3 + 4
Chorus (repeat till end)

Comments about this tab

No comments/corrections found. Add your own

Complimentary Christian Ringtones
Dadamobile and CGR have teamed up to bring your favorite Christian artists right to your phone. Sign up today and get 10 complementary ringtones!
Tab Country
Did you know CGR has a sister site w/ country guitar tabs? Well we do! Its called Tab Country. It has a great archive with a lot of country tabs.
Rockin Tabs
Are you looking for a site that has rock guitar tabs? Then Rockintabs.com is the place for you. It is a budding site with many rock guitar tabs. Submit your tab today.
Tab Gallery
Tab Gallery has a compilation of christian, rock, and country tabs all in one place. Come visit us.