Guitar Tabs
song title    band name

Join Us Today!

Don't strum alone...
be a part of the largest online Christian music community. Browse thousands of guitar tabs and chat w/ musicians like yourself.


It's Free!

This tab has been rated a 5.00 out of 5 for accuracy. (5 votes)Sorry, but you must be logged in to rate this tab.
Click here to log-in, or you can click here to register.
(Registration is free)

All songs owned by corresponding publishing company. If you make copies of any song on this website, be sure to report your usage to CCLI.
Submitted by: happyhotdogs

This Fragile Breath
Todd Agnew

intro tab
------------------------------3-2-0-2--------------------------------
----3----h5----/7------2---------------------------------------------
-----------------------------------------------4---4-----------------
----------------------------------------------------------4--5-------
---------------------------------------------------------------------
---------------------------------------------------------------------

Comments about this tab

pendley4 - 2004-02-15

Sorry, but I don't understand the "-----3-5-3-----" stuff. I could use "C", "G", etc. Any way of doing that? Thanks...


happyhotdogs - 2004-02-27

whatever number is on the line play that fret. The top line is the high E and the bottom line isthe low E So yeah just listen for the timing and you should be able to figure it out but the actual chords are on the next song down


spoonlicker - 2004-03-16

If you visit Todd Agnew's website gracelikerain.com, he has all the cord charts for his album posted there.


B-rad - 2004-03-17

Exactly right, but you could add the chords and the little didly in the chorus that goes...

E-------3--2--2h3p2--0--2------------------------------------------------------------------------
B-------------------------------------------------------------------------------------------------------
D-------------------------------------------------------------------------------------------------------

and after the Bridge it goes...
D-----------------------------------------------------4--5--4--5------------
A--------------------------------------------5--4-----------------------------
E----10bend and slide to----2--3--------------------------------------


Silent Steel - 2005-06-16

Hey! pendly4, if you want the chords instead of the tabs, check out www.ultimate-guitar.com. They are not a Christian site, but they do have a few Christian tabs. Enjoy!

-TJ


F.U.E.L(1) - 2005-07-06

Close B_rad...
I listened to it and played it your way and it never sounded quite right. Here is how it goes...

D-----------------------------------------------------7--5--4--5------------
A--------------------------------------------4--5-----------------------------
E----10bend and slide to----2--3--------------------------------------

fuel


leftyaxe - 2006-08-17

try using the octave split string effect on the intro,the song is in the key of D so your index finger would be on the 5th fret of the A string and your ring finger(or pinky,whichever is easier)would be on the 7th fret of the G string. hold this pattern while sliding up and to the next note.make sure to mute the D string while doing this. the same trick is used in todd's song "in the middle of me" keep jammin those christian songs!


Add a comment/correction

Complimentary Christian Ringtones
Dadamobile and CGR have teamed up to bring your favorite Christian artists right to your phone. Sign up today and get 10 complementary ringtones!
Tab Country
Did you know CGR has a sister site w/ country guitar tabs? Well we do! Its called Tab Country. It has a great archive with a lot of country tabs.
Rockin Tabs
Are you looking for a site that has rock guitar tabs? Then Rockintabs.com is the place for you. It is a budding site with many rock guitar tabs. Submit your tab today.
Tab Gallery
Tab Gallery has a compilation of christian, rock, and country tabs all in one place. Come visit us.