Guitar Tabs
song title    band name

Join Us Today!

Don't strum alone...
be a part of the largest online Christian music community. Browse thousands of guitar tabs and chat w/ musicians like yourself.


It's Free!

This tab has not yet been rated for accuracy.Sorry, but you must be logged in to rate this tab.
Click here to log-in, or you can click here to register.
(Registration is free)

All songs owned by corresponding publishing company. If you make copies of any song on this website, be sure to report your usage to CCLI.
Submitted by: Rainer.

Song: Alone
Artist: Slick Shoes
Album: Slick Shoes 2001
Tabbed by Jonathan Dong

  Gtr I (Rhythm)
|-------------------------------------------------|
|-------------------------------------------------|
|-------------------------------------------------|
|--4--4--4--4--4--4--4--4--4--4--4--4--4--4--4--4-|
|--5--5--5--5--5--5--5--5--5--5--5--5--5--5--5--5-|
|--2--2--2--2--2--2--2--2--2--2--2--2--2--2--2--2-|
|
| Gtr II (Lead)
|-------------------------------------------------|
|-------------------------------------------------|
|-11-11-11-13-13-13-11-11-11-14-14-14-13-13-11-11-|
|--x--x--x--x--x--x--x--x--x--x--x--x--x--x--x--x-|
|--9--9--9-11-11-11--9--9--9-12-12-12-11-11--9--9-|
|-------------------------------------------------|

I
|--------------------------------------------------|
|--------------------------------------------------|
|--------------------------------------------------|
|--6--6--6--6--6--6--6--6--6--6--6--6--6--6--6--6--|
|--7--7--7--7--7--7--7--7--7--7--7--7--7--7--7--7--|
|--4--4--4--4--4--4--4--4--4--4--4--4--4--4--4--4--|
II
|--------------------------------------------------|
|--------------------------------------------------|
|-13-13-13-14-14-14-13-13-13-16-16-16-14-14-13-13--|
|--x--x--x--x--x--x--x--x--x--x--x--x--x--x--x--x--|
|-11-11-11-12-12-12-11-11-11-14-14-14-12-12-11-11--|
|--------------------------------------------------|


|-------------------------------------------------|
|-------------------------------------------------|
|-------------------------------------------------|
|--7--7--7--7--7--7--7--7--7--7--7--7--7--7--7--7-|
|--7--7--7--7--7--7--7--7--7--7--7--7--7--7--7--7-|
|--5--5--5--5--5--5--5--5--5--5--5--5--5--5--5--5-|
|
|-------------------------------------------------|
|-17-17-17-15-15-15-14-14-14-15-15-15-14-14-12-12-|
|--x--x--x--x--x--x--x--x--x--x--x--x--x--x--x--x-|
|-14-14-14-12-12-12-11-11-11-12-12-12-11-11--9--9-|
|-------------------------------------------------|
|-------------------------------------------------|


|-------------------------------------------------|
|-------------------------------------------------|
|-------------------------------------------------|
|--4--4--4--4--4--4--4--4--4--4--4--4--4--4--4--4-|
|--5--5--5--5--5--5--5--5--5--5--5--5--5--5--5--5-|
|--2--2--2--2--2--2--2--2--2--2--2--2--2--2--2--2-|
|
|-------------------------------------------------|
|-------------------------------------------------|
|-11-11-11-13-13-13-11-11-11-14-14-14-13-13-11-11-|
|--x--x--x--x--x--x--x--x--x--x--x--x--x--x--x--x-|
|--9--9--9-11-11-11--9--9--9-12-12-12-11-11--9--9-|
|-------------------------------------------------|


|-------------------------------------------------|
|-------------------------------------------------|
|-------------------------------------------------|
|--6--6--6--6--6--6--6--6--6--6--6--6--6--6--6--6-|
|--7--7--7--7--7--7--7--7--7--7--7--7--7--7--7--7-|
|--4--4--4--4--4--4--4--4--4--4--4--4--4--4--4--4-|
|
|-------------------------------------------------|
|-------------------------------------------------|
|-13-13-13-14-14-14-13-13-13-16-16-16-14-14-13-13-|
|--x--x--x--x--x--x--x--x--x--x--x--x--x--x--x--x-|
|-11-11-11-12-12-12-11-11-11-14-14-14-12-12-11-11-|
|-------------------------------------------------|


|--------------------------------------------------|----------------------||
|--------------------------------------------------|----------------------||
|--------------------------------------------------|-9\7\6----------------||
|--7--7--7--7--7--7--7--7--7--7--7--7--7--7--7--7--|-9\7\7-2---------(2)--||
|--7--7--7--7--7--7--7--7--7--7--7--7--7--7--7--7-o|-7\5\4-2---------(2)--||
|--5--5--5--5--5--5--5--5--5--5--5--5--5--5--5--5--|-------0---------(0)--||
|
|--------------------------------------------------|----------------------||
|-17-17-17-15-15-15-14-14-14-15-15-15-14-14-12-12--|17\15\14--------------||
|--x--x--x--x--x--x--x--x--x--x--x--x--x--x--x--x--|-x\-x\-x-4-4-4-6-4----||
|-14-14-14-12-12-12-11-11-11-12-12-12-11-11--9--9--|14\12\11-x-x-x-x-x----||
|--------------------------------------------------|---------2-2-2-4-2----||
|--------------------------------------------------|----------------------||



One Guitar
Palm Mute
                                                                   Play 4x
||----------------------------------|-----------------------------------||
||o---------------------------------|----------------------------------o||
||--------------------9-----7---6---|-------------------9-----7---6-----||
||--7-----6-----9-------------------|-7-----6-----9---------------------||
||o---0-0---0-0---0-0---0-0---0---0-|---0-0---0-0---0-0---0-0---0---0--o||
||----------------------------------|-----------------------------------||


                      |Chorus PLay 2x
                      | 
                      |
|---------------------|-------------------|----------------------|
|---------------------|-------------------|----------------------|
|---------------------|-------9-9-9-9-9-9-|---------------7-7-7--|
|-7-----6-----9-------|-7-7-7-9-9-9-9-9-9-|-2-2-2-2-2-2-2-7-7-7--|
|---0-0---0-0---0-----|-7-7-7-7-7-7-7-7-7-|-2-2-2-2-2-2-2-5-5-5--|
|---------------------|-5-5-5-0-0-0-0-0-0-|-0-0-0-0-0-0-0--------|


                                                

|---------------------------------|-----------------------|
|---------------------------------|-----------------------|
|-2-----4-----2-----4-----2-------|-----------------------|
|-2-----4-----2-----4-----2---6---|---7-7-7-7-2-2-2-2-2-2-|
|-0-0-0-2-0-0-0-0-0-2-0-0-0-0-7-0-|-0-7-7-7-7-2-2-2-2-2-2-|
|-----------------------------4---|---5-5-5-5-0-0-0-0-0-0-|


 Interlude
Smooth Upstrokes
|--------------|-^5------------|-^5------------|--------------|
|-^5-----------|-^5------------|-^5------------|-^7-----------|
|-^6-----------|-^7------------|-^6------------|-^9-----------|
|-^6-----------|-^7------------|-^7------------|-^9-----------|
|-^4-----------|-^5------------|-^7------------|-^7-----------|
|--------------|---------------|-^5------------|--------------|



|-----------------|-^5--------------|-^5----------|-------||
|-^5--------------|-^5--------------|-^5----------|-^7----||
|-^6--------------|-^7--------------|-^6----------|-^9----||
|-^6--------------|-^7--------------|-^7----------|-^9----||
|-^4--------------|-^5--------------|-^7----------|-^7----||
|-----------------|-----------------|-^5----------|-------||



 Verse

|-------------------------------|--------------------------------|
|-------------------------------|--------------------------------|
|-6-6-6-6-6-6-6-6-6-6-6-6-6-6-6-|-7-7-7-7-7-7-7-7-7-7-7-7-7-7-7--|
|-6-6-6-6-6-6-6-6-6-6-6-6-6-6-6-|-7-7-7-7-7-7-7-7-7-7-7-7-7-7-7--|
|-4-4-4-4-4-4-4-4-4-4-4-4-4-4-4-|-5-5-5-5-5-5-5-5-5-5-5-5-5-5-5--|
|-------------------------------|--------------------------------|


|-------------------------------|--------------------------------|
|-------------------------------|--------------------------------|
|-------------------------------|-9-9-9-9-9-9-9-9-9-9-9-9-9-9-9--|
|-7-7-7-7-7-7-7-7-7-7-7-7-7-7-7-|-9-9-9-9-9-9-9-9-9-9-9-9-9-9-9--|
|-7-7-7-7-7-7-7-7-7-7-7-7-7-7-7-|-7-7-7-7-7-7-7-7-7-7-7-7-7-7-7--|
|-5-5-5-5-5-5-5-5-5-5-5-5-5-5-5-|--------------------------------|


|---------------------------------|
|---------------------------------|
|-6-6-6-6-6-6-6-6-6-6-6-6-6-6-6-6-|
|-7-7-7-7-7-7-7-7-7-7-7-7-7-7-7-7-|
|-4-4-4-4-4-4-4-4-4-4-4-4-4-4-4-4-|
|---------------------------------|

|---------------------------------------------5-5-5-5-5-|
|--x---x---x---x---x---x---x---x---x---x---x--x-x-x-x-x-|
|--7---7---7---7---7---7---7---7---7---7---7--7-7-7-x-x-|
|--7---7---7---7---7---7---7---7---7---7---7--7-7-7-x-x-|
|--5---5---5---5---5---5---5---5---5---5---5--5-5-5-x-x-|
|-------------------------------------------------------|


|---------------------------------|
|---------------------------------|
|---------------------------------|
|-7-7-7-7-7-7-7-7-7-7-7-7-7-7-7-7-|
|-7-7-7-7-7-7-7-7-7-7-7-7-7-7-7-7-|
|-5-5-5-5-5-5-5-5-5-5-5-5-5-5-5-5-|


                               
|---------------------------------------------||
|---------------------------------------------||
|-9-9-9-9S11-11-11-11S13-13-13-13-13-13-13-13-||
|-x-x-x-xS=x--x--x--xS=x--x--x--x--x--x--x--x-||
|-7-7-7-7S=9--9--9--9S11-11-11-11-11-11-11-11-||
|---------------------------------------------||


   Guitar Solo Play 2x
    
    Gtr III
|------------------------------------------------|
|-7--7--7--9--9--9-10-10-10-10-10-10--9--9--7--7-|
|-x--x--x--x--x--x--x--x--x--x--x--x--x--x--x--x-|
|-4--4--4--6--6--6--7--7--7--7--7--7--6--6--4--4-|
|------------------------------------------------|
|------------------------------------------------|
|
|   Gtr I
|------------------------------------------------|
|------------------------------------------------|
|------------------------------------------------|
|-4--4--4--4--4--4--4--4--4--4--4--4--4--4--4--4-|
|-5--5--5--5--5--5--5--5--5--5--5--5--5--5--5--5-|
|-2--2--2--2--2--2--2--2--2--2--2--2--2--2--2--2-|
|
|   Gtr II
|------------------------------------------------|
|------------------------------------------------|
|11-11-11-13-13-13-11-11-11-14-14-14-13-13-11-11-|
|-x--x--x--x--x--x--x--x--x--x--x--x--x--x--x--x-|
|-9--9--9-11-11-11--9--9--9-12-12-12-11-11--9--9-|
|------------------------------------------------|


|--------------------------------------------------|
|--9--9--9-10-10-10-12-12-12-12-12-12-10-10--9--9--|
|--x--x--x--x--x--x--x--x--x--x--x--x--x--x--x--x--|
|--6--6--6--7--7--7--9--9--9--9--9--9--7--7--6--6--|
|--------------------------------------------------|
|--------------------------------------------------|
|
|--------------------------------------------------|
|--------------------------------------------------|
|--------------------------------------------------|
|--6--6--6--6--6--6--6--6--6--6--6--6--6--6--6--6--|
|--7--7--7--7--7--7--7--7--7--7--7--7--7--7--7--7--|
|--4--4--4--4--4--4--4--4--4--4--4--4--4--4--4--4--|
|
|--------------------------------------------------|
|--------------------------------------------------|
|-13-13-13-14-14-14-13-13-13-16-16-16-14-14-13-13--|
|--x--x--x--x--x--x--x--x--x--x--x--x--x--x--x--x--|
|-11-11-11-12-12-12-11-11-11-14-14-14-12-12-11-11--|
|--------------------------------------------------|


|-------------------------------------------------|
|-14-14-14-14-14-14-14-14-14-14-14-14-12-12-12-12-|
|--x--x--x--x--x--x--x--x--x--x--x--x--x--x--x--x-|
|-11-11-11-11-11-11-11-11-11-11-11-11--9--9--9--9-|
|-------------------------------------------------|
|-------------------------------------------------|
|
|-------------------------------------------------|
|-------------------------------------------------|
|-------------------------------------------------|
|--7--7--7--7--7--7--7--7--7--7--7--7--7--7--7--7-|
|--7--7--7--7--7--7--7--7--7--7--7--7--7--7--7--7-|
|--5--5--5--5--5--5--5--5--5--5--5--5--5--5--5--5-|
|
|-------------------------------------------------|
|-17-17-17-15-15-15-14-14-14-15-15-15-14-14-12-12-|
|--x--x--x--x--x--x--x--x--x--x--x--x--x--x--x--x-|
|-14-14-14-12-12-12-11-11-11-12-12-12-11-11--9--9-|
|-------------------------------------------------|
|-------------------------------------------------|


|-------------------------------------------------|
|-10-10-10-10-10-10-10-10-10-10-10-10-10-10-10-10-|
|--x--x--x--x--x--x--x--x--x--x--x--x--x--x--x--x-|
|--7--7--7--7--7--7--7--7--7--7--7--7--7--7--7--7-|
|-------------------------------------------------|
|-------------------------------------------------|
|
|-------------------------------------------------|
|-------------------------------------------------|
|-------------------------------------------------|
|--4--4--4--4--4--4--4--4--4--4--4--4--4--4--4--4-|
|--5--5--5--5--5--5--5--5--5--5--5--5--5--5--5--5-|
|--2--2--2--2--2--2--2--2--2--2--2--2--2--2--2--2-|
|
|-------------------------------------------------|
|-------------------------------------------------|
|-11-11-11-13-13-13-11-11-11-14-14-14-13-13-11-11-|
|--x--x--x--x--x--x--x--x--x--x--x--x--x--x--x--x-|
|--9--9--9-11-11-11--9--9--9-12-12-12-11-11--9--9-|
|-------------------------------------------------|


|-------------------------------------------------|
|-12-12-12-12-12-12-12-12-12-12-12-12-12-12-12-12-|
|--x--x--x--x--x--x--x--x--x--x--x--x--x--x--x--x-|
|--9--9--9--9--9--9--9--9--9--9--9--9--9--9--9--9-|
|-------------------------------------------------|
|-------------------------------------------------|
|
|-------------------------------------------------|
|-------------------------------------------------|
|-------------------------------------------------|
|--6--6--6--6--6--6--6--6--6--6--6--6--6--6--6--6-|
|--7--7--7--7--7--7--7--7--7--7--7--7--7--7--7--7-|
|--4--4--4--4--4--4--4--4--4--4--4--4--4--4--4--4-|
|
|-------------------------------------------------|
|-------------------------------------------------|
|-13-13-13-14-14-14-13-13-13-16-16-16-14-14-13-13-|
|--x--x--x--x--x--x--x--x--x--x--x--x--x--x--x--x-|
|-11-11-11-12-12-12-11-11-11-14-14-14-12-12-11-11-|
|-------------------------------------------------|


|-------------------------------------------------|
|--7--7--7--7--7--7--7--7--7--7--7--7--7--7--7--7-|
|--x--x--x--x--x--x--x--x--x--x--x--x--x--x--x--x-|
|--4--4--4--4--4--4--4--4--4--4--4--4--4--4--4--4-|
|-------------------------------------------------|
|-------------------------------------------------|
|
|-------------------------------------------------|
|-------------------------------------------------|
|-------------------------------------------------|
|--4--4--4--4--4--4--4--4--4--4--4--4--4--4--4--4-|
|--5--5--5--5--5--5--5--5--5--5--5--5--5--5--5--5-|
|--2--2--2--2--2--2--2--2--2--2--2--2--2--2--2--2-|
|
|-------------------------------------------------|
|-------------------------------------------------|
|-11-11-11-13-13-13-11-11-11-14-14-14-13-13-11-11-|
|--x--x--x--x--x--x--x--x--x--x--x--x--x--x--x--x-|
|--9--9--9-11-11-11--9--9--9-12-12-12-11-11--9--9-|
|-------------------------------------------------|


  Gtr IV
|---------------------------------||
|---------------------------------||
|-9-9-9-9-9-9-9-9-9-9-9-9-9-9-9-9-||
|-x-x-x-x-x-x-x-x-x-x-x-x-x-x-x-x-||
|-7-7-7-7-7-7-7-7-7-7-7-7-7-7-7-7-||
|---------------------------------||
|
| Gtrs I, II
| 
|---------------------------------||
|---------------------------------||
|-9-9-9-9-9-9-9-9-9-9-9-9-9-9-9-9-||
|-9-9-9-9-9-9-9-9-9-9-9-9-9-9-9-9-||
|-7-7-7-7-7-7-7-7-7-7-7-7-7-7-7-7-||
|-0-0-0-0-0-0-0-0-0-0-0-0-0-0-0-0-||


   Chorus agin a few times then end with this:

                                             SLOW DOWN...
|--------------------|-----------------------|-----------|------|
|--------------------|-----------------------|-----------|------|
|--------------------|-7-7-7-7-7-7-7-7-7-7-7-|-----------|-7----|
|-4--4-4-4-2-2-2-2-2-|-7-7-7-7-7-7-7-7-7-7-7-|-4----2----|-7----|
|-4--4-4-4-2-2-2-2-2-|-5-5-5-5-5-5-5-5-5-5-5-|-4----2----|-5----|
|-2--2-2-2-0-0-0-0-0-|-----------------------|-2----0----|------|

There was another version of this on the site, but this is the real
version, arranged for 2 (actually 3) guitars.

Any questions? rainerclouds@yahoo.com

Comments about this tab

No comments/corrections found. Add your own

Complimentary Christian Ringtones
Dadamobile and CGR have teamed up to bring your favorite Christian artists right to your phone. Sign up today and get 10 complementary ringtones!
Tab Country
Did you know CGR has a sister site w/ country guitar tabs? Well we do! Its called Tab Country. It has a great archive with a lot of country tabs.
Rockin Tabs
Are you looking for a site that has rock guitar tabs? Then Rockintabs.com is the place for you. It is a budding site with many rock guitar tabs. Submit your tab today.
Tab Gallery
Tab Gallery has a compilation of christian, rock, and country tabs all in one place. Come visit us.