Guitar Tabs
song title    band name

Join Us Today!

Don't strum alone...
be a part of the largest online Christian music community. Browse thousands of guitar tabs and chat w/ musicians like yourself.


It's Free!

This tab has been rated a 5.00 out of 5 for accuracy. (2 votes)Sorry, but you must be logged in to rate this tab.
Click here to log-in, or you can click here to register.
(Registration is free)

All songs owned by corresponding publishing company. If you make copies of any song on this website, be sure to report your usage to CCLI.
Submitted by: 77715

Dream Again
These Five Down

this song i figured by listening to it alot but i havent gotten all the
parts just the stuff you`ll see here!

D-------------------------------------------------------------
A-------------------------------------------------------------
E-------3-(scratch the chord up wards then down on this)------

e-----------------
b---0-------------
g---2-------------ring this part after bass solo
D---2-------------
A-----------------
E-----------------

e----------------------
b----------------------
g------------3---------post intro listen to it closely
D----------2-3---------
A--222-222-2-----------
E--222-222-------------

e-----------------------
b------------6^---------
g-----------------------play this for the verse
D-----------------------
A-222-222---------------
E-222-222---------------
play chorus as you would the post intro shown above 

second verse and then on like this           the end is played like shown below
e------------------------/-----------------/-------------------------------]
b------------------------/-----------6^----/-------6^-------6^--------6^---]
g------------------------/-----------------/-------------------------------]
D------------------------/-----------------/-------------------------------]
A--222-222-------8h7-----/-222-222---------/-------------------------------]
E--222-222---------------/-222-222---------/-------------------------------]

easy to play just listen , and use alot of distortion or it wont sound right.

                                                      -77715

Comments about this tab

No comments/corrections found. Add your own

Complimentary Christian Ringtones
Dadamobile and CGR have teamed up to bring your favorite Christian artists right to your phone. Sign up today and get 10 complementary ringtones!
Tab Country
Did you know CGR has a sister site w/ country guitar tabs? Well we do! Its called Tab Country. It has a great archive with a lot of country tabs.
Rockin Tabs
Are you looking for a site that has rock guitar tabs? Then Rockintabs.com is the place for you. It is a budding site with many rock guitar tabs. Submit your tab today.
Tab Gallery
Tab Gallery has a compilation of christian, rock, and country tabs all in one place. Come visit us.