Guitar Tabs
song title    band name

Join Us Today!

Don't strum alone...
be a part of the largest online Christian music community. Browse thousands of guitar tabs and chat w/ musicians like yourself.


It's Free!

This tab has been rated a 3.00 out of 5 for accuracy. (3 votes)Sorry, but you must be logged in to rate this tab.
Click here to log-in, or you can click here to register.
(Registration is free)

All songs owned by corresponding publishing company. If you make copies of any song on this website, be sure to report your usage to CCLI.
Submitted by: Kobus

ArtiSt : LiVing SacRifice
AlbUm  : ConciVed iN FiRe
SonG   : SubTle AlliAnCe
Tabbed by : Kobie ErAsMus

Drop D tuning

x = palm mute

Part A:

e --------------------------------------------
B --------------------------------------------
G -----8-8-8-8--7-7-7-------11111111-101010---  (ps <- is 11 and 10 frets)
D -0x-------------------0x--------------------
A -0x--6-6-6-6--5-5-5---0x--9-9-9-9--8-8-8----
D -0x-------------------0x--------------------

e --------------------------------------------
B --------------------------------------------
G -----8-8-8-8--7-7-7-------------------------
D -0x-------------------0x--7-7-7-7--8-8-8----
A -0x--6-6-6-6--5-5-5---0x--------------------
D -0x-------------------0x--7-7-7-7--8-8-8----

Part B:

e --------------------------------------------
B --------------------------------------------
G -----------(5)------------------------------
D -0----0-0-----------------------------------
A -0----0-0-----------------------------------
D -0----0-0-----------------------------------


Part C:

e --------------------------------------------
B --------------------------------------------
G --------------------------------------------
D -0x-0x-0x-0x-0x-0x-0x-0x-0x-----------------
A -0x-0x-0x-0x-0x-0x-0x-0x-0x--9-9-9-9--5-5-5-
D -0x-0x-0x-0x-0x-0x-0x-0x-0x-----------------


e --------------------------------------------
B --------------------------------------------
G --------------------------------------------
D -0x-0x-0x-0x-0x-0x-0x-0x-0x-----------------
A -0x-0x-0x-0x-0x-0x-0x-0x-0x--8-8-8-8--4-4-4-
D -0x-0x-0x-0x-0x-0x-0x-0x-0x-----------------


Part D:  (Climax of the song)

e --------------------------------------------
B --------------------------------------------
G --------------------------------------------
D -0x-0x-0x-0x-0x-0x-0x-0x-0x--9-9-9-9--5-5-5-
A -0x-0x-0x-0x-0x-0x-0x-0x-0x--9-9-9-9--5-5-5-
D -0x-0x-0x-0x-0x-0x-0x-0x-0x--9-9-9-9--5-5-5-


e --------------------------------------------
B --------------------------------------------
G --------------------------------------------
D -0x-0x-0x-0x-0x-0x-0x-0x-0x--8-8-8-8--4-4-4-
A -0x-0x-0x-0x-0x-0x-0x-0x-0x--8-8-8-8--4-4-4-
D -0x-0x-0x-0x-0x-0x-0x-0x-0x--8-8-8-8--4-4-4-


Part E:

e --------------------------------------------------------
B --------------------------------------------------------
G ----------------(5)------------------------(5)----------
D -0x-0x-0x-0x--0-------0x----0x-0x-0x-0x--0-------0x-----
A -0x-0x-0x-0x----------0x----0x-0x-0x-0x----------0x-----
D -0x-0x-0x-0x----------0x----0x-0x-0x-0x----------0x-----


Part F:

e --------------------------------------------
B --------------------------------------------
G ----------------(5)-------------------------
D -0x-0x-0x-0x--0-------0x--------------------
A -0x-0x-0x-0x----------0x--------------------
D -0x-0x-0x-0x----------0x--------------------  X4 then

e --------------------------------------------
B --------------------------------------------
G --------------------------------------------
D -0x-0x-0x-0x----6-8-5-0---------------------
A -0x-0x-0x-0x----6-8-5-0---------------------
D -0x-0x-0x-0x----6-8-5-0---------------------  not too sure if its right



i left a lot out but that should do for now. i dont think this
is how the band plays it but if you do then plz tab it.

OReR of PaRTS:

Part A - x2
Part B - x16
Part A - x2
Part B - x16
Part C - x4
Part B - x8
Part C - x2
Part D - x2
Part E - x8
Part F - x4
Part A - to end

Comments about this tab

No comments/corrections found. Add your own

Complimentary Christian Ringtones
Dadamobile and CGR have teamed up to bring your favorite Christian artists right to your phone. Sign up today and get 10 complementary ringtones!
Tab Country
Did you know CGR has a sister site w/ country guitar tabs? Well we do! Its called Tab Country. It has a great archive with a lot of country tabs.
Rockin Tabs
Are you looking for a site that has rock guitar tabs? Then Rockintabs.com is the place for you. It is a budding site with many rock guitar tabs. Submit your tab today.
Tab Gallery
Tab Gallery has a compilation of christian, rock, and country tabs all in one place. Come visit us.