Guitar Tabs
song title    band name

Join Us Today!

Don't strum alone...
be a part of the largest online Christian music community. Browse thousands of guitar tabs and chat w/ musicians like yourself.


It's Free!

Dogwood - Left Out Cold

This tab has not yet been rated for accuracy.Sorry, but you must be logged in to rate this tab.
Click here to log-in, or you can click here to register.
(Registration is free)

All songs owned by corresponding publishing company. If you make copies of any song on this website, be sure to report your usage to CCLI.
"Left Out Cold"
Artist: Dogwood
Album: "More Than Conquerors"
Written by: Josh Kemble and Sean O'Donnell
Copyright: 1999 Thirsty Moon River Publishing (ASCAP)
       and 1999 Crazy Breacher Music (ASCAP)


Notes: *means high chord, "means octave chord, ""means high
octave chord, <>means vibrato, ^means quick bend, /means
slide, on lines 4 and 5 of second verse guitar 1 is top line
and guitar 2 is bottom line

Intro: C*" A#" A" A#" C*" A#" A" A#" D#" A#" A" G" (x2)
       A#(pm)

     A# D#...
What happened now?
      B-|---8-----|             
      G-|-----...8|         A-|---8-----|
      D-|-8-------|         E-|-8---8...|
Excuse of why we can't move away.
A-|------5...|
E-|-10/3----|
         Taken from the box.
G-|---10------|
D-|-8----10...|
    Skimmed over the top.
B-|---8-----|             
G-|-----...8|
D-|-8-------| 
    Trust is of the past.
A-|---8-----|
E-|-8---8...|         (pick slide)A#
    Friendships never last.
A# D C  D  C      D   C        D#
Nobody wins in a race against defeat.
D#    D             A# A#(pm) A#               A#(pm) A#
You conquered our beliefs        with words of deceit.
A#        F* D C D C
Harbored animosity
D#            D                 C A# G A# A A#
engulfing our desires to forgive.


(Chorus)
A#                D#
Now fear's swept away.
                       G G(pm)
I have nothing left to say.
         G G(pm)      D#
I choose Heaven over death,
          A#
simple as breath.
                  D#"
My God has taken charge,
   D"                G G(pm)
my past has left me scarred.
G G(pm)   D#...
Left out cold.

A#...

            D...
There was a place
         B-|-8-----|
         G-|---8...|
we all knew where
              A#"
we could get along.
G(pm)A# G(pm)A# G(pm)A#(pm) D A#(pm) D A#(pm)
G(pm)                A#(pm)  
    No one stabbed another brother.
A#(pm) D# A#(pm)D# A#(pm)G(pm)A# G(pm) A# G(pm)
D#(pm)                   D(pm)
    We could re-        -ly on each other.
G(pm)       D   C   D     C 
The virtues we all shared,
   D     C    D#        D  
no other time compares.
         G  G(pm)
How could we 
      G     G(pm) A#
have let you get away?
A#        F* D C D C
Harbored animosity
D#            D                 C A# G A# A A#
engulfing our desires to forgive.

(Chorus)
A#                D#
Now fear's swept away.
                       G G(pm)
I have nothing left to say.
         G G(pm)      D#
I choose Heaven over death,
          A#
simple as breath.
                  D#"
My God has taken charge,
   D"                G G(pm)
my past has left me scarred.
G G(pm)   D#...
Left out cold.

e-|---------------------------------------------------------------
B-|-------------------------------------------------8^------------
G-|-----------------------------------------8-7---7-----7----10-8-
D-|-8<>---------10-8-7-10-8-8-7-----------8------8----------------
A-|-------8-8-8--------------------------------8-----8------------
E-|---------------------------------------------------------------

e-|-------------------------------------------------10-8-10-11-10-
B-|--------------8^-----------------------------------------------
G-|-10-8-10------10-8--A#"" C#""----------------------------------
D-|---------------------------------------------------------------
A-|---------------------------------------------------------------
E-|---------------------------------------------------------------

e-|-8-10-8----------------------------------------------|
B-|-----------------------------------------------------|
G-|-----------------------------------7-------7-10-8-7--|
D-|------------------7-8-7-8-10----10-----------------8-|
A-|-------------10--------------------------------------|
E-|-----------------------------------------------------|



(Chorus)
A#                D#
Now fear's swept away.
                       G G(pm)
I have nothing left to say.
         G G(pm)      D#
I choose Heaven over death,
          A#
simple as breath.
                  D#"
My God has taken charge,
   D"                G G(pm)
my past has left me scarred.
G G(pm)   D# D#(pm) D# D#(pm)
Left out cold.
G G(pm)   D# D#(pm) D# D#(pm)
Left out cold.

G" F" G" A#" G" A#" D"/D#"/D"

Comments about this tab

No comments/corrections found. Add your own

Complimentary Christian Ringtones
Dadamobile and CGR have teamed up to bring your favorite Christian artists right to your phone. Sign up today and get 10 complementary ringtones!
Tab Country
Did you know CGR has a sister site w/ country guitar tabs? Well we do! Its called Tab Country. It has a great archive with a lot of country tabs.
Rockin Tabs
Are you looking for a site that has rock guitar tabs? Then Rockintabs.com is the place for you. It is a budding site with many rock guitar tabs. Submit your tab today.
Tab Gallery
Tab Gallery has a compilation of christian, rock, and country tabs all in one place. Come visit us.