Guitar Tabs
song title    band name

Join Us Today!

Don't strum alone...
be a part of the largest online Christian music community. Browse thousands of guitar tabs and chat w/ musicians like yourself.


It's Free!

This tab has been rated a 3.50 out of 5 for accuracy. (2 votes)Sorry, but you must be logged in to rate this tab.
Click here to log-in, or you can click here to register.
(Registration is free)

All songs owned by corresponding publishing company. If you make copies of any song on this website, be sure to report your usage to CCLI.
Submitted by: cpitre

Life As We Know It
by Petra
Album: Jekyll & Hyde
(c)2003 Inpop Records
Tabbed by Cody P.
======================
Just want to say that this is the best Petra album to date. If you liked
Beyond Belief you'll love Jekyll & Hyde. Joined by Peter Furler and Phil Joel
from the Newsboys as well as Jamie Rowe and Tony Palacios from Guardian
this is the most rockin' Petra has ever sounded...


Verse:(listen to cd for exact rhythm, this is just to show you the chord pattern)

   E5            B5          C#5          A5              B5
e|------------|------------|------------|-------------|--------|
b|------------|------------|------------|-------------|--------|
g|------------|------------|------------|-------------|---4----|
D|----9--9--9-|----4--4--4-|----6--6--6-|----7---7--7-|---4----| Repeat verse
A|-/7---7--7--|-2----2--2--|-4----4--4--|-0----0--0---|---2----|
E|------------|------------|------------|-------------|--------|



Pre-chorus:
     D     E      D   A
e|---2-----0---|--2-------|
b|---3-----0---|--3----2--|
g|---2-----1---|--2----2--| Repeat pre-chorus
D|---0-----2---|--0----2--|
A|---------2---|-------0--|
E|---------0---|----------|



Chorus:
    F#m    D      E5   B5    F#m    D    A
e|---------2---|-----------|--------2--|---------------------|
b|---------3---|-----------|--------3--|---------------------|
g|---------2---|--------4--|--------2--|---------------------|
D|---4-----0---|--2-----4--|--4-----0--|---------------------|
A|---4---------|--2-----2--|--4--------|--0------------------|
E|---2---------|--0--------|--2--------|-----4---0--2p0-h2---|


   F#m   D    E5    C#5   F#m    D     E5    B5
e|-------2--|----------|---------2---|-----------|
b|-------3--|----------|---------3---|-----------|
g|-------2--|-------6--|---------2---|--------4--|
D|--4----0--|--2----6--|---4-----0---|--2-----4--|
A|--4-------|--2----4--|---4---------|--2-----2--|
E|--2-------|--0-------|---2---------|--0--------|


Guitar Riff

e|-----------------------------|------------------------|
b|-----------------------------|------------------------|
g|-----------------------------|------------------------| Repeat guitar riff
D|-------5---------------------|------5-----------------|
A|--5h7----7-----5-------------|-5h7----7-----5---------|
E|-----------------7-6-5--5p0--|-----------------7-6-5--|


Repeat verse
Repeat pre-chorus
Repeat chorus


Bridge:

 G5      B5
 G5      E5
 G5      A5
 A5      D5
 A5  B5  C#5


Wow oh! part:

e---------------|
b---------------|
g---------------|Repeat
D---------------|
A---------------|
E--0--3---3--5--|


Repeat chorus
Repeat guitar riff
End on E5 power chord

Comments about this tab

OliverTabs - 2004-10-19

I think the rythm of the accoustic guitar in the verse sounds something like this:

E-||----------------------|-------------------|-------------------------|
B-||----------------------|-------------------|-------------------------|
G-||*---------------------|-------------------|-------------------------|
D-||*------9---9-----9----|-----4---4-----4---|------6---6-----6--------|
A-||-----7---------7---7--|---2---------2---2-|----4---------4---4------|
E-||---0-----0---0--------|-0-----0---0-------|--0-----0---0------------|



E------------------------------||---------------------------------------|
B------------------------------||---------------------------------------|
G-----------------------------*||---------------------------------------|
D----------7----4-----4-------*||---------------------------------------|
A--------0----------2---2------||---------------------------------------|
E------0-----0----0------------||---------------------------------------|

Best regards,

Oliver Nemitz
(www.OliverNemitz.de)


Add a comment/correction

Complimentary Christian Ringtones
Dadamobile and CGR have teamed up to bring your favorite Christian artists right to your phone. Sign up today and get 10 complementary ringtones!
Tab Country
Did you know CGR has a sister site w/ country guitar tabs? Well we do! Its called Tab Country. It has a great archive with a lot of country tabs.
Rockin Tabs
Are you looking for a site that has rock guitar tabs? Then Rockintabs.com is the place for you. It is a budding site with many rock guitar tabs. Submit your tab today.
Tab Gallery
Tab Gallery has a compilation of christian, rock, and country tabs all in one place. Come visit us.