Guitar Tabs
song title    band name

Join Us Today!

Don't strum alone...
be a part of the largest online Christian music community. Browse thousands of guitar tabs and chat w/ musicians like yourself.


It's Free!

This tab has not yet been rated for accuracy.Sorry, but you must be logged in to rate this tab.
Click here to log-in, or you can click here to register.
(Registration is free)

All songs owned by corresponding publishing company. If you make copies of any song on this website, be sure to report your usage to CCLI.
Submitted by: cpitre

Mr. Wilson
by King's X
Album: Faith, Hope, Love
(c)1990 jetdosa music/ackee music(ASCAP)
========================================



Verse:
   Em            C            D/F#          Gadd9           Em7     C 
e|--------------------------|----------------------------|------------------|
b|--------------------------|------------------------3/5-|-------3------1---|
g|-------0-----------0------|-------2------------2-------|-------0--------0-|
D|----2-----------2---------|----0------0-----0----------|----2----0---2----|
A|----------2--3---------3--|----------------------------|-----------3------|
E|-0------------------------|-2------------3-------------|--0---------------|


   D/F#         Gadd9
e|------------------------|
b|--------3------------3--|
g|----------2----------0--|
D|-----0-----------0------|
A|------------------------|
E|--2-----------3---------|



Chorus:
  A5        C5    B5   G5     D5        C5   B5    G5      A5   C5 D5   B5
e|---------------------------|---------------------------|--------------------|
b|------------------------3--|-3----3-----------------3--|--------------------|
g|-2----2-----------------0--|-2----2-----------------0--|--2-----------------|
D|-2----2----5-5--4-4-----0--|-0----0---5-5--4--4-----0--|--2---5-5---7-7--4--|
A|-0----0----3-3--2-2--------|----------3-3--2--2--------|--0---3-3---5-5--2--|
E|---------------------3--3--|---------------------3--3--|--------------------|
   

    C5            G5    F5
e|----------------------------|
b|----------------------------|
g|----------------------------|
D|--5--5----------------------|
A|--3--3----------5-5---3--3--|
E|----------------3-3---1--1--|
   


Interlude:
  Riff             F#5         A5   Riff             E5    D#5 D5  
e|---------------------------------|------------------------------|
b|---------------------------------|------------------------------|
g|---------------------------------|------------------------------|Repeat
D|---------------------------------|------------------2-----1--0--|
A|------------------4---4--4--4/7--|------------------2-----1--0--|
E|-0--2-3-0--2/3-0--2---0--2--2/5--|-0--2-3-0--2/3--0-0-----------|


Repeat chorus:(music only)

Guitar Solo:(play verse chords and use a G major pentatonic scale on 12th fret)

Repeat chorus & Interlude
repeat verse

Comments about this tab

No comments/corrections found. Add your own

Complimentary Christian Ringtones
Dadamobile and CGR have teamed up to bring your favorite Christian artists right to your phone. Sign up today and get 10 complementary ringtones!
Tab Country
Did you know CGR has a sister site w/ country guitar tabs? Well we do! Its called Tab Country. It has a great archive with a lot of country tabs.
Rockin Tabs
Are you looking for a site that has rock guitar tabs? Then Rockintabs.com is the place for you. It is a budding site with many rock guitar tabs. Submit your tab today.
Tab Gallery
Tab Gallery has a compilation of christian, rock, and country tabs all in one place. Come visit us.