Guitar Tabs
song title    band name

Join Us Today!

Don't strum alone...
be a part of the largest online Christian music community. Browse thousands of guitar tabs and chat w/ musicians like yourself.


It's Free!

This tab has been rated a 4.25 out of 5 for accuracy. (4 votes)Sorry, but you must be logged in to rate this tab.
Click here to log-in, or you can click here to register.
(Registration is free)

All songs owned by corresponding publishing company. If you make copies of any song on this website, be sure to report your usage to CCLI.
Submitted by: Haysooslovesu

Living Sacrifice
Burn the End
The Hammering Process

Tabbed by: Me

I've looked for hours upon end for tabs of this song, and no results. So here.

Guitar tuned down half a step and in drop d.

(you can figure out the strumming)
---------
---------
---------
--2-3-6--
--2-3-6--
--2-3-6--

-----------
-----------
-----------
--2-3-6-0--
--2-3-6-0--
--2-3-6-0-- (repeat these four times)

-----------------
-----------------
-----------------
-3-2-2-3-2-2-6-2-
-3-2-2-3-2-2-6-2-
-3-2-2-3-2-2-6-2-  (repeat quite a few times)
(palm mute)

Back to beginning


---------------------
---------------------
---------------------
-3-2-2-6---2-3-2-2-6-
-3-2-2-6---2-3-2-2-6-
-3-2-2-6---2-3-2-2-6-   (repeat 16x)

back to beginning

(clean acoustic)
-0--7--------------------------------7------------------
-8--8--8----8--10--8--10--10--8----8---8----8--10--8--10
-9--9----9--9--9---9--9---9---9--9-------9--9--9---9--9-
--------------------------------------------------------
--------------------------------------------------------
--------------------------------------------------------

-5--------------------------------------------------
-5---5------5-----5----------5-----5-----5----------
-7-----7------7-----7---7------7-----7-----7---7----
-7-------7------7-----7----------7-----7-----7------
----------------------------------------------------
----------------------------------------------------  (repeat)

solo

----------------------------------------
-12-12-13-15-13-12-13-12h13p12----12----
-------------------------------14----14-
----------------------------------------
----------------------------------------
----------------------------------------

----------------------------------------
----------15----------------------------
-12-11-12----12-11----------11h12p11----
-------------------14-14-14-------------
----------------------------------------
----------------------------------------

---------------------------------------------
-------15-------13-12----12-10----10---------
-11-12----12-11-------14-------12----12-11-12
---------------------------------------------
---------------------------------------------
---------------------------------------------

---------------------------------------------
---------------------------------------------
--9-12-9-11-11h12p9-11h12p11-11h12p9--7/11\9-
---------------------------------------------
---------------------------------------------
---------------------------------------------

----------------------------------------
-----------12---------------------------
-----11-12----12-14-11-12-9-------------
--14------------------------/14---------
----------------------------------------
----------------------------------------

----------------------------------------
-----------12---------------------------
-----11-12----12-14-11-12----14---------
--14----------------------14------------
----------------------------------------
----------------------------------------

----------------------------------------
-----12-13-15-13-12-13-13-12h13p12------
--14-------------------------------14---
----------------------------------------
----------------------------------------
----------------------------------------

----------------------------------------
--12----------15-------13---------------
-----14-12-11----12-11----11-12-11h12p11
----------------------------------------
----------------------------------------
----------------------------------------

----------------------------------------
----------------------------------------
-----11-------9-------------------------
--14----14-12---/14---------------------
----------------------------------------
----------------------------------------
(heavy dist.)
----------------------------------------
----------------------------------------
----------------------------------------
-\2-------3-2---------------------------
-\2-3-2-0-----3-2-3---------------------
-\2-----------------5-2----------------- (repeat 4x)

---
---
---
-2-
-2-
-2-

----------------------------------------
----------------------------------------
----------------------------------------
-\2-------3-2---------------------------
-\2-3-2-0-----3-2-3---------------------
-\2-----------------5-2----------------- 

-----------
-----------
-----------
-2-2-5-2-5-
-2-2-5-2-5-
-2-2-5-2-5-

---------
---------
---------
--2-3-6--
--2-3-6--
--2-3-6--(repeat 3x)

------------------------
------------------------
------------------------
-2-2-2-3-2-2-2-2-2-2-2-2
-2-2-2-3-2-2-2-2-2-2-2-2
-2-2-2-3-2-2-2-2-2-2-2-2
             (palm mute)

---------
---------
---------
--2-3-6--
--2-3-6--
--2-3-6--

-----------
-----------
-----------
--2-3-6-0--
--2-3-6-0--
--2-3-6-0-- (repeat twice)

--------------------------------------------
--------------------------------------------
--------------------------------------------
-2-x-x-x-3-x-x-6-x-x-x-x-x------------------
-2-x-x-x-3-x-x-6-x-x-x-x-x------------------
-2-x-x-x-3-x-x-6-x-x-x-x-x------------------

--------------------------------------------
--------------------------------------------
--------------------------------------------
-2-x-x-x-3-x-x-6-x-x-0-0--------------------
-2-x-x-x-3-x-x-6-x-x-0-0--------------------
-2-x-x-x-3-x-x-6-x-x-0-0-------------------- (repeat twice)


That's it. As you may have noticed, I didn't write out the strumming patterns
or how many times you strum each chord on most of them, so beware. You can
figure it out yourself. If any questions, comments, or corrections, e-mail
me at GSusfreak4real@aol.com. Thanks

Comments about this tab

revel - 2005-04-15

Hey man, great tab, this has to bes one of THE best tabs ever. There is a 2nd guitar and it pretty much repeats itself...


--------------------------------------------------------
------5-5--555-666--9999--------------------------------
--------------------------------------------------------
--------------------------------------------------------
--------------------------------------------------------
--------------------------------------------------------

This part is played after the solo...


--------------------------------------------------------
------5--55----55555-66666-555-66666-88888--------------
--------------------------------------------------------
--------------------------------------------------------
--------------------------------------------------------
--------------------------------------------------------


Add a comment/correction

Complimentary Christian Ringtones
Dadamobile and CGR have teamed up to bring your favorite Christian artists right to your phone. Sign up today and get 10 complementary ringtones!
Tab Country
Did you know CGR has a sister site w/ country guitar tabs? Well we do! Its called Tab Country. It has a great archive with a lot of country tabs.
Rockin Tabs
Are you looking for a site that has rock guitar tabs? Then Rockintabs.com is the place for you. It is a budding site with many rock guitar tabs. Submit your tab today.
Tab Gallery
Tab Gallery has a compilation of christian, rock, and country tabs all in one place. Come visit us.