Guitar Tabs
song title    band name

Join Us Today!

Don't strum alone...
be a part of the largest online Christian music community. Browse thousands of guitar tabs and chat w/ musicians like yourself.


It's Free!

This tab has been rated a 3.25 out of 5 for accuracy. (4 votes)Sorry, but you must be logged in to rate this tab.
Click here to log-in, or you can click here to register.
(Registration is free)

All songs owned by corresponding publishing company. If you make copies of any song on this website, be sure to report your usage to CCLI.
Submitted by: AllTheWayLive86

Million Pieces
Newsboys

Tabbed by:Rob Trennepohl

This is a good song.  The guitar part is pretty easy.

Standard tuning

Here's the strum pattern
s=strum
x=mute
It's a two measure strum pattern.  
s   s s s  x x  x s   s   s s s
1 & 2 & 3 & 4 &|1 & 2 & 3 & 4 &|

Play this strum pattern on the chords below for two measures.  Then change
chords, but use the same strum pattern.
()= play only one measure

Intro:
E---------------------
B---------------------
G--9--4--2--(9)--(4)--
D--9--4--2--(9)--(4)--
A--7--2--0--(7)--(2)--
E---------------------

Chorus:
E-------------------------------
B-------------------------------
G--9--4--2---9--4--2--(9)--(4)--
D--9--4--2---9--4--2--(9)--(4)--
A--7--2--0---7--2--0--(7)--(2)--
E-------------------------------

Verse:
E------------------------------
B---------------------------5--
G--14--13--6--4--14--13--6--4--
D--14--13--6--4--14--13--6--4--
A--12--11--4--2--12--11--4--2--
E------------------------------

Chorus 

Verse

Chorus

Bridge:                                  (at 2:54, still using strum pattern)
E------------------------------------------------------
B------------------------------------------------------
G-----------------------------------------11--6--4--6--
D-----------------------------------------11--6--4--6--
A-----------------2-6---------------2-1---9---4--2--4--
E--4-11-4-11-4-11----4-11-4-11-4-11--------------------

Key Change Chorus (6x):
E---------------
B---------------
G--11--6--4--6--
D--11--6--4--6--
A--9---4--2--4--
E---------------

And that's it.  Pretty simple.  Enjoy!

Comments about this tab

No comments/corrections found. Add your own

Complimentary Christian Ringtones
Dadamobile and CGR have teamed up to bring your favorite Christian artists right to your phone. Sign up today and get 10 complementary ringtones!
Tab Country
Did you know CGR has a sister site w/ country guitar tabs? Well we do! Its called Tab Country. It has a great archive with a lot of country tabs.
Rockin Tabs
Are you looking for a site that has rock guitar tabs? Then Rockintabs.com is the place for you. It is a budding site with many rock guitar tabs. Submit your tab today.
Tab Gallery
Tab Gallery has a compilation of christian, rock, and country tabs all in one place. Come visit us.