Guitar Tabs
song title    band name

Join Us Today!

Don't strum alone...
be a part of the largest online Christian music community. Browse thousands of guitar tabs and chat w/ musicians like yourself.


It's Free!

This tab has been rated a 4.75 out of 5 for accuracy. (4 votes)Sorry, but you must be logged in to rate this tab.
Click here to log-in, or you can click here to register.
(Registration is free)

All songs owned by corresponding publishing company. If you make copies of any song on this website, be sure to report your usage to CCLI.
Submitted by: OskarBorgenvik

Kutless - Dry
Tabbed by Oskar Borgenvik,
Tuning: Dropped D (EBGDAD)

xxxxxxxxxxxxxxxxxxxxxxxxxxxxxxxxxxxxxxxxxxxxxxxxxxxxxxxxxxxxxxxxxxxxxxxxxxxxxxx

Intro, vers

E -x-
B ----------------------------------------------------3---------------------
G--------0----0------------0----0-------0----0-----0-----------4------------
D----4----------------4--------------------0----------------4-------4/5\4---
A------5---------5-------5--------5--2-----------2--------2-------2---------
D -0-------0--------0---------0---------------------------------------------

4 times

E ----------3-------------3--------------2----------------2---------
B -------3----3---------3---3----------2---2------------2---2-------
G ----0---------0-----0-------0-------------------------------------
D ----------------------------------4----------4-----4---------4----
A --3---------------3-------------2---------------2-----------------
D -x-

E --------3------------3-----------2------------
B ------3---3--------3---3-------2---2----------
G ----0-------0----0-------0---------------5----
D -----------------------------4--------4--5----
A --3------------3------------2------------5----
D -x-

E -x-
B ----------------------------------------------------3------------------
G ---------0----0-------------0----0------0---0----0--------4------------
D ----4------------------4------------------0-------------4------4/5\4---
A -------5--------5---------5--------5--2-------2-------2-----2----------
D --0--------0---------0--------0----------------------------------------

3 times


E -x-
B ------------------------------------------------------
G --------0---0-----------0---0-------0----0----0-------
D ---4----------------4------------------0---------5----
A ------5-------5-------5--------5--2---------2----5----
D --0-------0------0--------0----------------------5----

xxxxxxxxxxxxxxxxxxxxxxxxxxxxxxxxxxxxxxxxxxxxxxxxxxxxxxxxxxxxxxxxxxxxxxxxxxxxxxx

Chorus

E -x-
B -x-
G -x-
D --10---10--10--12---10--12------9---9--9--11--9--11---
A --10---10--10--10---10--10------9---9--9--9---9--9----
D --10---10--10--10---10--10------9---9--9--9---9--9----

E -x-
B -x-
G -x-
D --10---10--10--12---10--12------9---9--9--11---5----
A --10---10--10--10---10--10------9---9--9--9----5----
D --10---10--10--10---10--10------9---9--9--9----5----

2 times

xxxxxxxxxxxxxxxxxxxxxxxxxxxxxxxxxxxxxxxxxxxxxxxxxxxxxxxxxxxxxxxxxxxxxxxxxxxxxxx

Bridge

E -x-
B ---------3-------------------------------------3--------------------
G -------2---------2--0-----------------------2----------2--0---------
D ---0--------0-----------4--0----0-2-0-------------0---------4--0----
A -x
D -x-

E -x-
B -------------------------------------------------3------------------
G ------------------------------2--0-------------2----------2--0------
D ----0-2-0----4-5-4----0-2-0--------4--0----0---------0---------4----
A -x-
D -x-

xxxxxxxxxxxxxxxxxxxxxxxxxxxxxxxxxxxxxxxxxxxxxxxxxxxxxxxxxxxxxxxxxxxxxxxxxxxxxxx

Chorus        

E -x-
B -x-
G -x-
D --10---10--10--12---10--12------9---9--9--11--9-11----
A --10---10--10--10---10--10------9---9--9--9---9--9----
D --10---10--10--10---10--10------9---9--9--9---9--9----

E -x-
B -x-
G -x-
D --10---10--10--12---10--12------9---9--9--11---5----
A --10---10--10--10---10--10------9---9--9--9----5----
D --10---10--10--10---10--10------9---9--9--9----5----

2 times

xxxxxxxxxxxxxxxxxxxxxxxxxxxxxxxxxxxxxxxxxxxxxxxxxxxxxxxxxxxxxxxxxxxxxxxxxxxxxxx

Chorus 2

E -x-
B -x-
G -x-
D ----9-10-10-10-9-10-10-10-9-10-10-10-9-10-10-10---
A ----9-10-10-10-9-10-10-10-9-10-10-10-9-10-10-10---
D ----9-10-10-10-9-10-10-10-9-10-10-10-9-10-10-10---

E -x-
B -x-
G -x-
D ----7-9-9-9-7-9-9-9-7-9-9-9-7-9-9-9---
A ----7-9-9-9-7-9-9-9-7-9-9-9-7-9-9-9---
D ----7-9-9-9-7-9-9-9-7-9-9-9-7-9-9-9---

E -x-
B -x-
G -x-
D ----9-10-10-10-9-10-10-10-9-10-10-10-9-10-10-10---
A ----9-10-10-10-9-10-10-10-9-10-10-10-9-10-10-10---
D ----9-10-10-10-9-10-10-10-9-10-10-10-9-10-10-10---

E -x-
B -x-
G -x-
D ----7-9-9-9-7-9-9-5-----
A ----7-9-9-9-7-9-9-5-----
D ----7-9-9-9-7-9-9-5-----

2 times



I hope thatís right.
Good luck and God Bless You

Comments about this tab

Highfive1177 - 2005-06-24

Hey....man that is really close.. I play it like this though
E ----------------/--/------------------------------
B ----------------/--/---------------3---------------
G ---------0---0--/x2/---------0-------0---4-------------
D -----4-----4---4/--/-----3-----4-------0---0-4s5s4------------
A -------5--------/--/---2---2-----5--------------------
D ---0---------------------------------------------


Add a comment/correction

Complimentary Christian Ringtones
Dadamobile and CGR have teamed up to bring your favorite Christian artists right to your phone. Sign up today and get 10 complementary ringtones!
Tab Country
Did you know CGR has a sister site w/ country guitar tabs? Well we do! Its called Tab Country. It has a great archive with a lot of country tabs.
Rockin Tabs
Are you looking for a site that has rock guitar tabs? Then Rockintabs.com is the place for you. It is a budding site with many rock guitar tabs. Submit your tab today.
Tab Gallery
Tab Gallery has a compilation of christian, rock, and country tabs all in one place. Come visit us.