Guitar Tabs
song title    band name

Join Us Today!

Don't strum alone...
be a part of the largest online Christian music community. Browse thousands of guitar tabs and chat w/ musicians like yourself.


It's Free!

This tab has been rated a 3.50 out of 5 for accuracy. (2 votes)Sorry, but you must be logged in to rate this tab.
Click here to log-in, or you can click here to register.
(Registration is free)

All songs owned by corresponding publishing company. If you make copies of any song on this website, be sure to report your usage to CCLI.
Submitted by: nottelling

All The While Having Fun!
Song Written By: Owen Thomas
Solo Performed By: Thomas Daugherty
Album: Truth, Soul, Rock & Roll (2002 Sparrow Records)
Tabbed By: Mindy Bayko

h = hammer on
< = pull off
~ = bend and return
\ = slide down

E--------------------------------------------------------------|
B-9-9-9--------------------------9-9-9-9-----------------------|
G-------11-9----9h11<9---9-11-11---------11-9---9h11<9----9-11-|
D------------11--------11---------------------11-------11------|
A--------------------------------------------------------------|
E--------------------------------------------------------------|

E-----7---------------7---------------7---------9-7---------|
B-7-9---9-7-------7-9---9-7-------7-9---9-7-7-------9-7~----|
G-----------9-6-------------9-6---------------9---------9-6-|
D---------------9---------------9---------------------------|
A-----------------------------------------------------------|
E-----------------------------------------------------------|

E------------------------|
B-7-7-7------------------|
G-7-7-7h-9-7---6h9-9-6-9-|
D------------9-----------|
A------------------------|
E------------------------|

E--------------|-----------|-----------|--------------------|
B--------------|-----------|-----------|--------------------|
G--------------|-----------|-----------|--------------------|
D----9h11<9----|-9h11<9----|-9h11<9----|-9h11<9----9\7------|
A-11--------11-|--------11-|--------11-|--------11-----11<9-|
E--------------|-----------|-----------|--------------------|

E--------------------|
B--------------------|
G--------------------|
D------------9-------|
A-11-11-9h11---11-11-|
E--------------------|

It just goes into the rest of the song from thereÖI donít know the rest.
I spent a week on this so I;m like %99.985 sure that itís exactly right, but
if there are any problems email me - michelebayko@cs.com - oh, and youíre
on your own for the timing, but itís not that hard. :)

This band, and this album, rocks like no other! So...if you don't have 
it...GO GET IT!!!!!!!!

Rock on- Mindy.

Comments about this tab

nottelling - 2004-05-10

I have seen Thom play this 6 times now, and the only difference between the way he plays it and the way it's written here is that instead of hammering from the 7th to the 9th fret he bends it. All it gets you is a smoother sound though, it's the same notes either way.


Add a comment/correction

Complimentary Christian Ringtones
Dadamobile and CGR have teamed up to bring your favorite Christian artists right to your phone. Sign up today and get 10 complementary ringtones!
Tab Country
Did you know CGR has a sister site w/ country guitar tabs? Well we do! Its called Tab Country. It has a great archive with a lot of country tabs.
Rockin Tabs
Are you looking for a site that has rock guitar tabs? Then Rockintabs.com is the place for you. It is a budding site with many rock guitar tabs. Submit your tab today.
Tab Gallery
Tab Gallery has a compilation of christian, rock, and country tabs all in one place. Come visit us.