Guitar Tabs
song title    band name

Join Us Today!

Don't strum alone...
be a part of the largest online Christian music community. Browse thousands of guitar tabs and chat w/ musicians like yourself.


It's Free!

This tab has been rated a 5.00 out of 5 for accuracy. (1 vote)Sorry, but you must be logged in to rate this tab.
Click here to log-in, or you can click here to register.
(Registration is free)

All songs owned by corresponding publishing company. If you make copies of any song on this website, be sure to report your usage to CCLI.
Submitted by: jjjjord

Song: Face of Christ
Artist: Chris Rice
Album: Smell the Color Nine

Transcribed by Jon Jordan
Email: jjjjord@erols.com

This song is tuned down a half step from standard tuning: 
EbAbDbF#Bbeb.  This tab is written in relation to that tuning.


e---------------------------------------------------------------
B--------------5----------4-------5--5--5--5--5--5--5-----------
G-----------4-------------5-------6--6--6--6--6--6--6-----------
D-------6-------------4-----------------------------------------
A------------------3----------4---------------------------------
E---0-----------------------------------------------------------


-----------------------------------------------------2---------
---------3--3------3--3--3-------6--6--6---------2-------------
---------4--4------4--4--4-------4--4--4-------2---2-----------
------4--------------------------------------4-----------------
---2------------0--------------4-------------------------------
--------------------------------------------------------------- 


---------------------------------------------------------------
--------------5----------4-------5--5--5--5--5--5--5-----------
-----------4-------------5-------6--6--6--6--6--6--6-----------
-------6-------------4-----------------------------------------
------------------3----------4---------------------------------
---0-----------------------------------------------------------

----------------------------------------------4--5----2------------
------3--3--3------3--3--3-------6--6--6-------------2-------------
------4--4--4------4--4--4-------4--4--4-------------2-------------
-----------------------------------------------------4-------------
---2------------0--------------4---------------------4-------------
-----------------------------------------------------2-------------

Chorus:

          Bm       F#m
          Bm       Db7
          Bm       Dbsus2
          Bm       Db7
          F#m      Bm


Note:  Starting at the verse which begins:  a tattered sleeping bag...
the electric guitar plays this with a flanger effect:


----------------------4-------------------------2------------2----
------9--7--------5--------7-----5---------3------3-----3-----3---
---9--------8--6--------6-----6-----6--4-------------2------------
------------------------------------------------------------------
------------------------------------------------------------------
------------------------------------------------------------------
  

-----------4h5--2------------------------------------------------
--------6-----------2--------------------------------------------
-----4-----------------2--1--------------------------------------
--6---------------------------4----------------------------------
-----------------------------------------------------------------
-----------------------------------------------------------------

The chords in the chorus   Bm x24432
                          F#m 244222
                          Db7 446464
                       Dbsus2 x46644 



The rest of the song has small variations of these but this is the 
just of the song.  

Enjoy

Comments about this tab

No comments/corrections found. Add your own

Complimentary Christian Ringtones
Dadamobile and CGR have teamed up to bring your favorite Christian artists right to your phone. Sign up today and get 10 complementary ringtones!
Tab Country
Did you know CGR has a sister site w/ country guitar tabs? Well we do! Its called Tab Country. It has a great archive with a lot of country tabs.
Rockin Tabs
Are you looking for a site that has rock guitar tabs? Then Rockintabs.com is the place for you. It is a budding site with many rock guitar tabs. Submit your tab today.
Tab Gallery
Tab Gallery has a compilation of christian, rock, and country tabs all in one place. Come visit us.