Guitar Tabs
song title    band name

Join Us Today!

Don't strum alone...
be a part of the largest online Christian music community. Browse thousands of guitar tabs and chat w/ musicians like yourself.


It's Free!

This tab has been rated a 0.50 out of 5 for accuracy. (4 votes)Sorry, but you must be logged in to rate this tab.
Click here to log-in, or you can click here to register.
(Registration is free)

All songs owned by corresponding publishing company. If you make copies of any song on this website, be sure to report your usage to CCLI.
Submitted by: tdprojectmusic

I'm Lion-O
Relient K

Tuning EADGBe

x=mute
.=palm mute
h=hammer on
p=pull off

Intro/Fill

e|----------------------------------------
B|----------------------------------------
G|-99--99--99--99--99--99--99-------------
D|-99--99--99--99--99--99--99-------------
A|-77--77--00--77--xx--77--xx-------------
E|-----------------99------77-------------
                           ..
Verse

e|------------------------------------------
B|------------------------------------------
G|-99-9-99-9-----------99-9-99-9-99-9-99-9--
D|-99-9-99-9-77-7-77-7-99-9-99-9-99-9-99-9--
A|-77-7-77-7-77-7-77-7-77-7-77-7-xx-x-xx-x--
E|-----------55-5-55-5-----------99-9-99-9--
   ..   ..   ..   ..   ..   ..   ..   ..

Chorus

e|--------------------------------------
B|--------------------------------------
G|-9999---------------------------------
D|-9999-7777-11111111-9999--------------
A|-7777-7777-11111111-9999--------------
E|------5555--9-9-9-9-7777--------------

Pre-Lead

A5 Palm mute and slowly let off into lead

Lead

e|---------------------
B|-4-5-7-5-4-4h5~~~~~~~
G|---------------------
D|---------------------
A|---------------------
E|---------------------

Bridge just do some finger picking or something
Chords C# Am E5 B

Order
Intro/Fill x2
Verse      x4
Intro/Fill x2
Chorus     x4
Intro/Fill x4
Pre-Lead   x1
Lead       x2
Bridge     
Intro/Fill x4
A Capella part
Intro Fill x4
Outro

e|-------------------
B|-------------------
G|-------------------
D|-22-22-22----------
A|-22-22-22----------
E|-00-00-00----------
   .. .. .

And thats it... I'm sure you can put it together.

Comments about this tab

Lou#1RelientKfn - 2007-04-20

These are unusual tabs. What is fret ninety-nine? Can anyone help me?


Lou#1RelientKfn - 2007-04-23

Now it's showing up on my screen as 9,999!!!


Add a comment/correction

Complimentary Christian Ringtones
Dadamobile and CGR have teamed up to bring your favorite Christian artists right to your phone. Sign up today and get 10 complementary ringtones!
Tab Country
Did you know CGR has a sister site w/ country guitar tabs? Well we do! Its called Tab Country. It has a great archive with a lot of country tabs.
Rockin Tabs
Are you looking for a site that has rock guitar tabs? Then Rockintabs.com is the place for you. It is a budding site with many rock guitar tabs. Submit your tab today.
Tab Gallery
Tab Gallery has a compilation of christian, rock, and country tabs all in one place. Come visit us.