Guitar Tabs
song title    band name

Join Us Today!

Don't strum alone...
be a part of the largest online Christian music community. Browse thousands of guitar tabs and chat w/ musicians like yourself.


It's Free!

This tab has been rated a 3.43 out of 5 for accuracy. (7 votes)Sorry, but you must be logged in to rate this tab.
Click here to log-in, or you can click here to register.
(Registration is free)

All songs owned by corresponding publishing company. If you make copies of any song on this website, be sure to report your usage to CCLI.
Submitted by: drako1011

Song: Walk By Faith
Artist: Jeremy Camp
Album: Stay

i just wanted to Add this intro to the song that was already posted.


E-----------13-----|
A---------11-------|
D---12-12----------|
G------------------|
B------------------|
e------------------|           play 4X's
                         

E-----------13-----|
A---------10-------|
D---12-12----------|
G------------------|
B------------------|
e------------------|           play about 4X's


hope this helps. play it at these frets with out any regards to the capo.

      God bless,
               martin

Comments about this tab

robercs - 2004-12-13

This is actually the correct version of the intro, the last one was missing one extra note, but it was close. ENJOY ALL!!!!!


---------------13----------------------
---------11-------11------------------- Repeat 4 Times
------12----12-------------------------
---------------------------------------
---------------------------------------
---------------------------------------



---------------13----------------------
---------10-------10------------------- Repeat 4 times
------12----12-------------------------
---------------------------------------
---------------------------------------
---------------------------------------


souljah11 - 2005-05-21

i agree with robercs here on the strumming but it should be a fret lower. otherwise, perfect. good job!


souljah11 - 2005-05-21

my bad 2 frets like this-

e------------11----------------------
B-----9----------9-------------------x4
G-10-----10--------------------------

e------------11----------------------
B-----8----------8-------------------x4
G-10-----10--------------------------


D---8---6---5-------


Guitar&Vocals7 - 2005-08-14

i hate this tab!!!!!!!!!!! you can do better i hope!


jesusismyhero - 2005-08-20

It sounds good with the first correction. The original is off though. Nice try!


peacemaker1-800 - 2005-11-26

theres a part that come right before he starts singing its kinda like a mini solodoes anybody know it...just wondering thanks


jugman21 - 2005-11-28

the last thing he does before the verse is
relative to capo 3
e----------------------------------
b----------------------------------
G-----5\7/5---h4pulloff------------
D----------------------------------
A----------------------------------
E----------------------------------


tybarela - 2005-12-03

Try this solo out as well. You will have to pick up the timing as I really don't know how to tab a song. God Bless...

----------------------------------------------------------
---4/6----------------------------------------------------
--------8-7-5---5-5/7--------5-5/7--------5-5/7-----------
----------------------8---5--------8---5--------8--7--8---
----------------------------------------------------------
----------------------------------------------------------


tybarela - 2005-12-03

Sorry,
If you have a 3rd guitar someone can play this in the middle of the intro as well. Let me know if you have any questions. Good Luck!

e------2h3pulloff------
B----------------3/5---


tybarela - 2005-12-03

Sorry for all of the mess, here is theiIntro relative to capo on 3rd fret. You can play with the Am Cadd9 G chord progression. There is a D also at the end of the intro solo. Let me know if you have any questions. Good Luck!
------------------------------------------------------------
---1/3------------------------------------------------------
--------5-4-2---2-2/4--0------2-2/4--0------2-2/4-0-----0---
--------------------------2-------------2------------4------
------------------------------------------------------------
------------------------------------------------------------


jway8127 - 2006-01-25

hey i have the new cd-dvd acoustic version and he strums during the intro i think..does anyone have the chords he uses?..i believe he has a capo 3


guitarluvr21 - 2006-02-17

i have to go with robbercs on that one but A for effort ive been trying to figure out this tab forever now so THX for tabbing it. Awesome song.
God Bless

Semper Fidelis


goowiz - 2006-05-02

Solo after Intro:

----------|----|----|----|----|----|5h6p5------|----|----|----|----|----|
----------|----|----|----|----|----|------6----|----|----|----|----|----|
s10--8-7--|----|5h7-|----|----|5h7-|----------8|7---|----|5h7-|----|----|
----------|5---|----|8*--|5---|----|-----------|----|5---|----|8*--|7*--|
----------|----|----|----|----|----|-----------|----|----|----|----|----|
----------|----|----|----|----|----|-----------|----|----|----|----|----|

s = slide (doesn't have to begin at a specific fret)
* = hold for 2 measures

I tried to tab this with measures, don't know if it will help or make it more confusing... but this is how I've been playing it after hearing the CD.


unidentified225 - 2007-04-18

Guitar&vocals7, dude, seriously that was really rude of you to say. We dont go around cutting you down all the time. This is supossed to be a CHRISTIAN site. Its not about the sound, its the praise of our wonderful God. I hated that you said that and i hope you could do better with ur critizim


Add a comment/correction

Complimentary Christian Ringtones
Dadamobile and CGR have teamed up to bring your favorite Christian artists right to your phone. Sign up today and get 10 complementary ringtones!
Tab Country
Did you know CGR has a sister site w/ country guitar tabs? Well we do! Its called Tab Country. It has a great archive with a lot of country tabs.
Rockin Tabs
Are you looking for a site that has rock guitar tabs? Then Rockintabs.com is the place for you. It is a budding site with many rock guitar tabs. Submit your tab today.
Tab Gallery
Tab Gallery has a compilation of christian, rock, and country tabs all in one place. Come visit us.