Guitar Tabs
song title    band name

Join Us Today!

Don't strum alone...
be a part of the largest online Christian music community. Browse thousands of guitar tabs and chat w/ musicians like yourself.


It's Free!

This tab has been rated a 3.67 out of 5 for accuracy. (6 votes)Sorry, but you must be logged in to rate this tab.
Click here to log-in, or you can click here to register.
(Registration is free)

All songs owned by corresponding publishing company. If you make copies of any song on this website, be sure to report your usage to CCLI.
Submitted by: mummythugz

               CHAPSTICK, CHAPPED LIPS, AND THINGS LIKE CHEMISTRY
                            As recorded by Relient K
       (From the 2003 Album TWO LEFTS DON'T MAKE A RIGHT... BUT THREE DO)


Music by Matthew Thiessen, Matthew Hoopes, Brian Pittman, Steve Cushman
Transcribed by Kevin Niswonger (mummythugz@yahoo.com)
This is the most comprehensive version of this song on the web and i have
the powertab file with midi available if anyone would like it.

           B                   B5                  F#/Bb                 G#5
      x 2 x 4 x x          x 2 4 4 x x          x 1 4 3 x x          4 6 6 x x x

          E5                   F#5                   E
      0 2 2 x x x          2 4 4 x x x          x 7 x 9 x x

Gtr I (E A D G B E) - 'Untitled'
Gtr II (E A D G B E) - 'Untitled'
Gtr III (E A D G B E) - 'Untitled'

   Intro
    Q=135
    B
   4/4
    Gtr I
    E. E. E. S S S E S S   E. E. E. S S S E S S
||-----------------------|-----------------------||
||o----------------------|----------------------o||
||--4--4--4--4-4-4-4-4-4-|-4--4--4--4-4-4-4-4-4--||
||-----------------------|-----------------------||
||o-2--2--2--2-2-2-2-2-2-|-2--2--2--2-2-2-2-2-2-o||
||-----------------------|-----------------------||


   Verse 1
    B5                     F#/Bb
    Gtr II
    W                      W
    |                      |
    /                      /

    Gtr I
    E. E. E. S S S E S S   E. E. E. S S S E S S
||-----------------------|----------------------|
||o----------------------|----------------------|
||--4--4--4--4-4-4-4-4-4-|-4--4--4--4-4-4-4-4-4-|
||-----------------------|----------------------|
||o-2--2--2--2-2-2-2-2-2-|-2--2--2--2-2-2-2-2-2-|
||-----------------------|----------------------|


 1.
  G#5                    E5
  W                      W
  |                      |
  /                      /

  E. E. E. S S S E S S   E. E. E. S S S E S S
|----------------------|-----------------------||
|----------------------|----------------------o||
|-4--4--4--4-4-4-4-4-4-|-4--4--4--4-4-4-4-4-4--||
|----------------------|-----------------------||
|-2--2--2--2-2-2-2-2-2-|-2--2--2--2-2-2-2-2-2-o||
|----------------------|-----------------------||


  2.
  G#5                    E5
  W                      Q  E E E E E E
  |                      |  | | | | | |
  /                      /  / / / / / /

                            PM--------|
  E. E. E. S S S E S S   Q  E E E E E E
|----------------------|----------------|
|----------------------|----------------|
|-4--4--4--4-4-4-4-4-4-|----------------|
|----------------------|----------------|
|-2--2--2--2-2-2-2-2-2-|-2--2-2-2-2-2-2-|
|----------------------|-0--0-0-0-0-0-0-|


   Pre-Chorus
                                   1.
    $
    E5     F#5      G#5    B5       E5               E5      F#5
    Q  E E Q  E E   Q  E E Q  E E   E. E. Q  E E E   E. E. E E.   E.   E
    |  | | |  | |   |  | | |  | |   |  |  |  | | |   |  |  | |    |    |
    /  / / /  / /   /  / / /  / /   /  /  /  / / /   /  /  / /    /    /

    Q  E E Q  E E   Q  E E Q  E E   E. E. Q  E E E   E. E. E E  E    Q
||----------------|---------------|----------------|----------------------||
||o---------------|---------------|----------------|---------------------o||
||----------------|---------------|----------------|-9--8--4-6------------||
||----------------|--------4--4-4-|----------------|----------------------||
||o-2--2-2-4--4-4-|-6--6-6-2--2-2-|-2--2--2--2-2-2-|-7--6--2-4-----------o||
||--0--0-0-2--2-2-|-4--4-4--------|-0--0--0--0-0-0-|----------------------||


  2.
  E5               E5      F#5
  E. E. Q  E E E   E. E. E E E Q
  |  |  |  | | |   |  |  | |
  /  /  /  / / /   /  /  / /

  E. E. Q  E E E   E. E. E E E Q
|----------------|----------------|
|----------------|----------------|
|----------------|-9--8--4-6------|
|----------------|----------------|
|-2--2--2--2-2-2-|-7--6--2-4------|
|-0--0--0--0-0-0-|----------------|


   Chorus
    B5                         E5        F#5
    E. E.     Q    E   E E     E. E.     Q    E   E E
    |  |      |    |   | |     |  |      |    |   | |
    /  /      /    /   / /     /  /      /    /   / /

    E. S  S S E. S S S E S S   E. S  S S E. S S S E S S
||---------------------------|--------------------------|
||o--------------------------|--------------------------|
||--4--4--4-4-4--4-4-4-4-4-4-|-4--4--4-4-4--4-4-4-4-4-4-|
||---------------------------|--------------------------|
||o-2--2--2-2-2--2-2-2-2-2-2-|-2--2--2-2-2--2-2-2-2-2-2-|
||---------------------------|--------------------------|


  B5
  E. E.     Q    E   E E
  |  |      |    |   | |
  /  /      /    /   / /

  E. S  S S E. S S S E S S
|--------------------------|
|--------------------------|
|-4--4--4-4-4--4-4-4-4-4-4-|
|--------------------------|
|-2--2--2-2-2--2-2-2-2-2-2-|
|--------------------------|


 1.                         2.
  E5        F#5              E5        F#5
  E. E.     Q    E   E E     E. E.     Q    E   E E
  |  |      |    |   |       |  |      |    |   | |
  /  /      /    /   /       /  /      /    /   / /

  E. S  S S E. S S S E E     E. S  S S E. S S S E S S
|-------------------------||---------------------------|
|------------------------o||---------------------------|
|-4--4--4-4-4--4-4-4-4----||-4--4--4-4-4--4-4-4-4-4-4--|
|-------------------------||---------------------------|
|-2--2--2-2-2--2-2-2-2---o||-2--2--2-2-2--2-2-2-2-2-2--|
|-------------------------||---------------------------|


                    To Coda
  G#5           E5    F#5     B
  E E Q  H      Q  Q  Q  Q    W           W
  |             |  |  |  |
  /             /  /  /  /

  E E Q  H      Q  Q  Q  Q    W          +W
|-------------|-------------|----------|--------|
|-------------|-------------|----------|--------|
|-------------|-------------|-4--------|-(4)----|
|-------------|-------------|----------|--------|
|-6-----------|-2--2--4--4--|-2--------|-(2)----|
|-4-----------|-0--0--2--2--|----------|--------|


 Bridge
  B5                        F#/Bb
  Gtr II
  E. S S S E. S S S E S S   E. S S S E. S S S E S S
|-------------------------|-------------------------|
|-------------------------|-------------------------|
|-------------------------|-------------------------|
|-4--4-4-4-4--4-4-4-4-4-4-|-4--4-4-4-4--4-4-4-4-4-4-|
|-2--2-2-2-2--2-2-2-2-2-2-|-1--1-1-1-1--1-1-1-1-1-1-|
|-------------------------|-------------------------|


  G#5                       E5       E
  E. S S S E. S S S E S S   E. S S S  E. S S S E S S
|-------------------------|---------------------------|
|-------------------------|---------------------------|
|-------------------------|----------/9--9-9-9-9-9-9--|
|-------------------------|---------------------------|
|-6--6-6-6-6--6-6-6-6-6-6-|-2--2-2-2-/7--7-7-7-7-7-7--|
|-4--4-4-4-4--4-4-4-4-4-4-|-0--0-0-0------------------|


  B5                        F#/Bb
  Gtr II
  E. S S S E. S S S E S S   E. S S S E. S S S E S S
  |  | | | |  | | | | | |   |  | | | |  | | | | | |
  /  / / / /  / / / / / /   /  / / / /  / / / / / /

  Gtr I
  E. S S S E. S S S E S S   E. S S S E. S S S E S S
|-------------------------|-------------------------|
|-------------------------|-------------------------|
|-4--4-4-4-4--4-4-4-4-4-4-|-4--4-4-4-4--4-4-4-4-4-4-|
|-------------------------|-------------------------|
|-2--2-2-2-2--2-2-2-2-2-2-|-2--2-2-2-2--2-2-2-2-2-2-|
|-------------------------|-------------------------|


                             D.S. al Coda
  G#5                       E5
  E. S S S E. S S S E S S   Q  E E E E E E
  |  | | | |  | | | | | |   |  | | | | | |
  /  / / / /  / / / / / /   /  / / / / / /

                               PM--------|
  E. S S S E. S S S E S S   Q  E E E E E E
|-------------------------|-----------------|
|-------------------------|-----------------|
|-4--4-4-4-4--4-4-4-4-4-4-|-----------------|
|-------------------------|-----------------|
|-2--2-2-2-2--2-2-2-2-2-2-|-2--2-2-2-2-2-2--|
|-------------------------|-0--0-0-0-0-0-0--|


 Post-Chorus
  &
  B5
  Gtrs I, II
  W                     +W
  |                      |
  /                      /

  Gtr III
  E. S E E. S E E S S    E. S E E. S E E S S
|---------------------|----------------------|
|---------------------|----------------------|
|-4--4-4-4--4-4-4-4-4-|--4--4-4-4--4-4-4-4-4-|
|-4--4-4-4--4-4-4-4-4-|--4--4-4-4--4-4-4-4-4-|
|-2--2-2-2--2-2-2-2-2-|--2--2-2-2--2-2-2-2-2-|
|---------------------|----------------------|


    B5                    E5     F#5              G#5    F#5      E5   F#5
                                                  Gtrs I, II
    E. S E E. S E E S S   E. S E E. S E E S S  3x E E Q  E E Q    H    H
||----------------------|----------------------||---------------|-----------|
||o---------------------|---------------------o||---------------|-----------|
||--4--4-4-4--4-4-4-4-4-|----------------------||---------------|-----------|
||--4--4-4-4--4-4-4-4-4-|-2--2-2-4--4-4-4-4-4--||---------------|-2----4----|
||o-2--2-2-2--2-2-2-2-2-|-2--2-2-4--4-4-4-4-4-o||-6------4------|-2----4----|
||----------------------|-0--0-0-2--2-2-2-2-2--||-4------2------|-0----2----|


    B5                        E5       F#5
    Gtr II
    E. S S S E. S S S E S S   E. S S S E. S S S E S S
    |  | | | |  | | | | | |   |  | | | |  | | | | | |
    /  / / / /  / / / / / /   /  / / / /  / / / / / /

    Gtr I
    E. S S S E. S S S E S S   E. S S S E. S S S E S S  3x
||--------------------------|--------------------------||
||o-------------------------|-------------------------o||
||--4--4-4-4-4--4-4-4-4-4-4-|-4--4-4-4-4--4-4-4-4-4-4--||
||--------------------------|--------------------------||
||o-2--2-2-2-2--2-2-2-2-2-2-|-2--2-2-2-2--2-2-2-2-2-2-o||
||--------------------------|--------------------------||


                                          H.=H
  G#5                       G#5F#5E5
  Gtrs I, II
  E. S S S E. S S S E S S   E. E. E +Q    Q
|-------------------------|------------------|
|-------------------------|------------------|
|-------------------------|------------------|
|-------------------------|------------------|
|-6--6-6-6-6--6-6-6-6-6-6-|-6--4--2-(2)\-----|
|-4--4-4-4-4--4-4-4-4-4-4-|-4--2--0-(0)\-----|


   Outro
    Q=100
    E5       B5            F#/Bb   B5        F#5
     S S E E S S E E E E   S S E E S S E E S E.
||-----------------------|-----------------------||
||o----------------------|----------------------o||
||-----------------------|-----------------------||
||-----------4-4-4---4---|-4-4-4---4-4-4---x-----||
||o-/2-2-2---2-2-2---2---|-1-1-1---2-2-2---x-4--o||
||--/0-0-0---------------|-------------------2---||


  E5            B5                      F#/Bb        B5              F#5
  Gtr II
   S S E    E    S S E    E    E    E   S S E    E    S S E     E  S E.
   | | |         | | |         |        | | |         | | |        | |
   / / /         / / /         /        / / /         / / /        x /

  Gtr I
     PM     PM     PM     PM     PM       PM     PM     PM
   S S S  S S S  S S S  S S S  S S  E   S S S  S S S  S S S  E.    E     E
|-------------------------------------|------------------------------------|
|-17p0-0-16p0-0-14p0-0-16p0-0-14p0-12-|-9p0-0-12p0-0-14p0-0-16----14----12-|
|-------------------------------------|------------------------------------|
|-------------------------------------|------------------------------------|
|-------------------------------------|------------------------------------|
|-------------------------------------|------------------------------------|


  E5            B5                      F#/Bb        B5              F#5
   S S E    E    S S E    E    E    E   S S E    E    S S E     E  S E.
   | | |         | | |         |        | | |         | | |        | |
   / / /         / / /         /        / / /         / / /        x /

     PM     PM     PM     PM     PM       PM     PM     PM
   S S S  S S S  S S S  S S S  S S  E   S S S  S S S  S S S  E.    Q
|-------------------------------------|---------------------------------|
|-17p0-0-16p0-0-14p0-0-16p0-0-14p0-12-|-9p0-0-12p0-0-14p0-0-16----12----|
|-------------------------------------|---------------------------------|
|-------------------------------------|---------------------------------|
|-------------------------------------|---------------------------------|
|-------------------------------------|---------------------------------|


    E5             B5                     F#/Bb       B5                F#5
     S  S  E     E  S  S  E     E  E  E   S S E     E  S  S  E     E  S E.
     |  |  |        |  |  |        |      | | |        |  |  |        | |
     /  /  /        /  /  /        /      / / /        /  /  /        x /

     S  S  S  E.    S  S  S  E.    E  E   S S S  E.    S  S  S  E.    E     E
||--------------------------------------|--------------------------------------|
||o-17-17-17-16----14-14-14-16----14-12-|-9-9-9-12----14-14-14-16----14----12--|
||--------------------------------------|--------------------------------------|
||--------------------------------------|--------------------------------------|
||o-------------------------------------|--------------------------------------|
||--------------------------------------|--------------------------------------|


  1.
  E5             B5                     F#/Bb       B5                F#5
   S  S  E     E  S  S  E     E  E  E   S S E     E  S  S  E     E  S E.
   |  |  |        |  |  |        |      | | |        |  |  |        | |
   /  /  /        /  /  /        /      / / /        /  /  /        x /

   S  S  S  E.    S  S  S  E.    E  E   S S S  E.    S  S  S  E.    Q
|-------------------------------------|-----------------------------------||
|-17-17-17-16----14-14-14-16----14-12-|-9-9-9-12----14-14-14-16----12----o||
|-------------------------------------|-----------------------------------||
|-------------------------------------|-----------------------------------||
|-------------------------------------|----------------------------------o||
|-------------------------------------|-----------------------------------||


  2.
  E5      B5              F#/Bb  B5
   Q.      Q.     +Q      Q.      E  +H            +W
   |       |       |      |       |   |             |
   /       /       /      /       /   /             /

   E.  E.  E.  E.  E  E   E.  E.  E.     E.  Q     +W
|-----------------------|-----------------------|---------*|
|-17--16--14--16--14-12-|-9--12--14-----16--12--|-(12)----*|
|-----------------------|-----------------------|---------*|
|-----------------------|-----------------------|---------*|
|-----------------------|-----------------------|---------*|
|-----------------------|-----------------------|---------*|


Duration Legend
---------------
W - whole; H - half; Q - quarter; E - 8th; S - 16th; T - 32nd; X - 64th; a - acciaccatura
+ - note tied to previous; . - note dotted; .. - note double dotted
Uncapitalized letters represent notes that are staccato (1/2 duration)
Irregular groupings are notated above the duration line
Duration letters will always appear directly above the note/fret number it
represents the duration for.  Duration letters with no fret number below
them represent rests.  Multi-bar rests are notated in the form Wxn, where n
is the number of bars to rest for.  Low melody durations appear below the
staff

Tablature Legend
----------------
 h   - hammer-on
 p   - pull-off
 b   - bend
 pb  - pre-bend
 r   - bend release (if no number after the r, then release immediately)
 /\  - slide into or out of (from/to "nowhere")
 s   - legato slide
 S   - shift slide
  - natural harmonic
[n]  - artificial harmonic
n(n) - tapped harmonic
 ~   - vibrato
 tr  - trill
 T   - tap
 TP  - trem. picking
 PM  - palm muting
\n/  - tremolo bar dip; n = amount to dip
 \n  - tremolo bar down
 n/  - tremolo bar up
/n\  - tremolo bar inverted dip
 =   - hold bend; also acts as connecting device for hammers/pulls
 <>  - volume swell (louder/softer)
 x   - on rhythm slash represents muted slash
 o   - on rhythm slash represents single note slash

Misc Legend
-----------
 |  - bar
||  - double bar
||o - repeat start
o|| - repeat end
*|  - double bar (ending)
 :  - bar (freetime)
 $  - Segno
 &  - Coda
Tempo markers -  = BPM(8/16=s8/s16), where s8 = swing 8ths,
s16 = swing 16ths

Comments about this tab

pressingon9119 - 2004-06-03

correct!! good job


beefjerky - 2004-08-08

good job but, i didn't think steve cushman was the drummer anymore. isn't it dave douglas?


mmggppmgp - 2004-09-02

OOOKay... GOOD


sportsboi - 2004-12-28

yes cushman is out...douglas is in


jamforchrist123 - 2005-03-18

Even Though This Is Probobly Correct, Its Pretty Confusing To Read.


blazer - 2005-04-30

can anyone get this tab right


rockeraj - 2005-06-15

yo thats flippin hard to read but i dont think its right though


Add a comment/correction

Complimentary Christian Ringtones
Dadamobile and CGR have teamed up to bring your favorite Christian artists right to your phone. Sign up today and get 10 complementary ringtones!
Tab Country
Did you know CGR has a sister site w/ country guitar tabs? Well we do! Its called Tab Country. It has a great archive with a lot of country tabs.
Rockin Tabs
Are you looking for a site that has rock guitar tabs? Then Rockintabs.com is the place for you. It is a budding site with many rock guitar tabs. Submit your tab today.
Tab Gallery
Tab Gallery has a compilation of christian, rock, and country tabs all in one place. Come visit us.