Guitar Tabs
song title    band name

Join Us Today!

Don't strum alone...
be a part of the largest online Christian music community. Browse thousands of guitar tabs and chat w/ musicians like yourself.


It's Free!

This tab has not yet been rated for accuracy.Sorry, but you must be logged in to rate this tab.
Click here to log-in, or you can click here to register.
(Registration is free)

All songs owned by corresponding publishing company. If you make copies of any song on this website, be sure to report your usage to CCLI.
Submitted by: papapimplez

Music Box Superhero
The Juliana Theory


Intro/Verse:
  Bb5                    C5       D5
E|-------------------------------------------|
B|-------------------------------------------|
G|------7/88-10/8-8-8------7/8--------7/8-|
D|---8-------8------8-8----8--------8--------|
A|--88------------------66-6-----666-------|
E|-6-----------------------------------------|

PreChorus:
C5 (or C) D5 D#5 F#5

Chorus:
Bb5 F5 G5 D#5

That great riff!:
E|-----------------|
B|-----------------|
G|-8-7--10-8-7-8-7-|
D|----7------------|
A|-----------------|
E|-----------------|

Or

E|----------------|
B|-4-3--6-4-3-4-3-|
G|----3-----------|
D|----------------|
A|----------------|
E|----------------|

Chords:
     EADGBE    EADGBE
Bb5: 688xxx or x133xx
C5:  x355xx or x32010
D5:  x577xx or xx0232
D#5: x688xx
F#5: x81010xx

I put in some extras so it would be easier to play along with the song.
Any questions, email me at papapimplez@msn.com .
God Bless,
John Poole

Comments about this tab

No comments/corrections found. Add your own

Complimentary Christian Ringtones
Dadamobile and CGR have teamed up to bring your favorite Christian artists right to your phone. Sign up today and get 10 complementary ringtones!
Tab Country
Did you know CGR has a sister site w/ country guitar tabs? Well we do! Its called Tab Country. It has a great archive with a lot of country tabs.
Rockin Tabs
Are you looking for a site that has rock guitar tabs? Then Rockintabs.com is the place for you. It is a budding site with many rock guitar tabs. Submit your tab today.
Tab Gallery
Tab Gallery has a compilation of christian, rock, and country tabs all in one place. Come visit us.