Guitar Tabs
song title    band name

Join Us Today!

Don't strum alone...
be a part of the largest online Christian music community. Browse thousands of guitar tabs and chat w/ musicians like yourself.


It's Free!

This tab has been rated a 5.00 out of 5 for accuracy. (2 votes)Sorry, but you must be logged in to rate this tab.
Click here to log-in, or you can click here to register.
(Registration is free)

All songs owned by corresponding publishing company. If you make copies of any song on this website, be sure to report your usage to CCLI.
Submitted by: mansonstinks

Blindfold
Delirious

Ive left out all of the weird effects, cause I doubt anyone can duplicate
them but If you can please let me know, cause I would like to know how. You
can play straight through this.  Also im really bad at showing the timing.
Basically each line is four measures.  Some might be off though, I didnt
check, just listen to the CD to get it.  Check out the other tab on the
site.  Its got the chords, im sure I messed up somewhere, so it can help
you if something sounds wrong.


e-----0--------0------0--------0------0---------0--
B-----3--------3------3--------3------3---------3--
G-----0--------0------0--------0------0---------0--
D--------------4---------------4----------------4--
A--------------------------------------------------
E3--------0-------3-------0-------3--------0------

e-----0--------0-----------------------------------
B-----3--------3-----------------------------------
G-----0--------0-----------------------------------
D--------------4-----------------------------------
A--------------------------------------------------
E3------------0-----------------------------------

e--------------------------------------------------
B-------12(12)/8----------------------------------
G--------------------------------------------------
D--------------------------------------------------
A--------------------------------------------------
E--------------------------------------------------

e------0-----------0----------0----------------0---
B------3-----------3----------3--------------3-----
G------4-----------0----------0-----------0--------
D------4-----------4----------4--------------------
A------2-----------4----------5--------------------
E-------------------------------------0------------

e--------------------------------------------------
B----------------------------------------------12/-
G--------------------------------------------------
D--------------------------------------------------
A--------------------------------------------------
E3----3/0-----------------------------------------

e--------------------------------0-----------------
B--/7----------------7/3---------3-----------------
G--------------------------------0-----------------
D--------------------------------------------------
A--------------------------------------------------
E-----------------------------0--------------------

(strum these chords)(X2)
e-2----------------0--------------0--------------3
B-3----------------3--------------3--------------3
G-2----------------2--------------0--------------0
D-0----------------2--------------0--------------0
A-------------------0--------------2---------------
E-------------------------------------------------3

During the second verse right here you sit idle until the next chorus

The chorus is the same except for at the end when he sings keep running
down twice, the second time he plays a B flat, and ends the chorus on a D

This is the bridge: (X2)
e----------------------------------------------------
B---7--------------10--------------5---------------3-
G---7--------------10--------------5---------------3-
D---5--------------8---------------3---------------1-
A---7--------------10--------------5---------------3-
E----------------------------------------------------

Then play this line twice
e------------------------------------------------------
B7--------------7/10--------------7---------------7/3-
G------------------------------------------------------
D------------------------------------------------------
A------------------------------------------------------
E------------------------------------------------------

These are the chords for the ending, strum them
e2------------0------------------0-------------------
B3------------3------------------3-----------------3-
G2------------2------------------2-----------------0-
D0------------0------------------0-----------------0-
A--------------4------------------3-----------------2-
E-----------------------------------------------------

Thats it.  Im sure you can make sense of this even though it is hard to
follow.  If you have any questions or comments email me at mansonstinks@aol.com

Play In Christ

Comments about this tab

No comments/corrections found. Add your own

Complimentary Christian Ringtones
Dadamobile and CGR have teamed up to bring your favorite Christian artists right to your phone. Sign up today and get 10 complementary ringtones!
Tab Country
Did you know CGR has a sister site w/ country guitar tabs? Well we do! Its called Tab Country. It has a great archive with a lot of country tabs.
Rockin Tabs
Are you looking for a site that has rock guitar tabs? Then Rockintabs.com is the place for you. It is a budding site with many rock guitar tabs. Submit your tab today.
Tab Gallery
Tab Gallery has a compilation of christian, rock, and country tabs all in one place. Come visit us.