Guitar Tabs
song title    band name

Join Us Today!

Don't strum alone...
be a part of the largest online Christian music community. Browse thousands of guitar tabs and chat w/ musicians like yourself.


It's Free!

This tab has been rated a 2.75 out of 5 for accuracy. (4 votes)Sorry, but you must be logged in to rate this tab.
Click here to log-in, or you can click here to register.
(Registration is free)

All songs owned by corresponding publishing company. If you make copies of any song on this website, be sure to report your usage to CCLI.
Submitted by: pinktux2theprom

Song: Naive Orleans
CD: Blueprints for the Black Market
Label: Tooth and Nail Records (2003)
Tabbed by Carole

Intro I:

e----------------------------------------
B----------4---------------------1---2---
G----------------------5-----------1-----
D------6-----------6---------------------
A----4---4-------3---3-------------------
E-----------------------------2---------- x4

Intro II:

e----------------------------------------
B------2-------4--------6----------------
G----1---1---3---3----6---6-------8------
D-------------------------------6---6----
A----------------------------4-----------
E--2-------4--------6-------------------- x2

F# (power chord-let ring)

This is the Intro only; I am hoping to figure out the rest of the song. I
find that Anberlin is surprisingly good for such a young band. If there
any mistakes, my screenname is GeeksHaveMoreFun and you can IM me. This
is my first "tabbing" but i believe it is fairly accurate.

Comments about this tab

BuddyofSponge - 2005-02-13

That second part isn't right, but the first part is almost perfect.

instead of
e----------------------------------------
B----------4---------------------1---2---
G----------------------5-----------1-----
D------6-----------6---------------------
A----4---4-------3---3-------------------
E-----------------------------2----------

it should be
e------------------------------------------
B----------4-------------------------------
G----------------------5-------------6-----
D------6-----------6------------6----------
A----4---4-------3---3-------4-----4-------
E------------------------------------------


EpiLesPaul - 2006-06-20

Thats mostly wrong, i will post the correct version.


EpiLesPaul - 2006-06-20

Scratch that.

I will post an extensivly exhaustive correct version.


Add a comment/correction

Complimentary Christian Ringtones
Dadamobile and CGR have teamed up to bring your favorite Christian artists right to your phone. Sign up today and get 10 complementary ringtones!
Tab Country
Did you know CGR has a sister site w/ country guitar tabs? Well we do! Its called Tab Country. It has a great archive with a lot of country tabs.
Rockin Tabs
Are you looking for a site that has rock guitar tabs? Then Rockintabs.com is the place for you. It is a budding site with many rock guitar tabs. Submit your tab today.
Tab Gallery
Tab Gallery has a compilation of christian, rock, and country tabs all in one place. Come visit us.