Guitar Tabs
song title    band name

Join Us Today!

Don't strum alone...
be a part of the largest online Christian music community. Browse thousands of guitar tabs and chat w/ musicians like yourself.


It's Free!

This tab has been rated a 4.67 out of 5 for accuracy. (61 votes)Sorry, but you must be logged in to rate this tab.
Click here to log-in, or you can click here to register.
(Registration is free)

All songs owned by corresponding publishing company. If you make copies of any song on this website, be sure to report your usage to CCLI.
Submitted by: freakshowjr05

Dare You To Move
Switchfoot

ok guys there are some other tabs for this on here, but this one is definitely
the closest to being right on that i've heard.  this has the actual number of
times the chords are played, listen to the cd for the strumming (it's fast).

-0--0--0---0-0-0--0-0-0--0-0-0-0-0-0-0--0-0-0-0-0-0-0-0-0-0-0-0-0-0-0-0-
-12-12-12--0-0-0--9-9-9--0-0-0-0-0-0-0--0-0-0-0-0-0-0-0-0-0-0-0-0-0-0-0-
-9--9--9---9-9-9--9-9-9--9-9-9-9-9-9-9--9-9-9-9-9-9-9-9-9-9-9-9-9-9-9-9-
-11-11-11--9-9-9--9-9-9--9-9-9-9-9-9-9--7-7-7-7-7-7-7-7-7-7-7-7-7-7-7-7-
-x--x--x---x-x-x--x-x-x--x-x-x-x-x-x-x--x-x-x-x-x-x-x-x-x-x-x-x-x-x-x-x-
-x--x--x---x-x-x--x-x-x--x-x-x-x-x-x-x--x-x-x-x-x-x-x-x-x-x-x-x-x-x-x-x-

and that chord progression stays the same throughout the verse until it gets
to a part that's a little different and uses these chords(you should be able
to hear when the chords change):

-0-0-0-0-0-0-0-0-0-0-0-0-0-0-0-0--0-0-0-0-0-0-0-0-0-0-0-0-0-0-0-0-------
-0-0-0-0-0-0-0-0-0-0-0-0-0-0-0-0--0-0-0-0-0-0-0-0-0-0-0-0-0-0-0-0-----
-9-9-9-9-9-9-9-9-9-9-9-9-9-9-9-9--9-9-9-9-9-9-9-9-9-9-9-9-9-9-9-9-----
-8-8-8-8-8-8-8-8-8-8-8-8-8-8-8-8--7-7-7-7-7-7-7-7-7-7-7-7-7-7-7-7-----
-9-9-9-9-9-9-9-9-9-9-9-9-9-9-9-9--x-x-x-x-x-x-x-x-x-x-x-x-x-x-x-x-----
-x-x-x-x-x-x-x-x-x-x-x-x-x-x-x-x--x-x-x-x-x-x-x-x-x-x-x-x-x-x-x-x-----

and the chorus uses more "normal" chords but ill tab them out anyway, but
listen to the cd for when to change chords.

-0--0--0--0-
-0--0--0--0-
-9--8--6--8-
-9--9--7--9-
-7--9--7--9-
-0--7--5--7-

the bridge uses these chords, in this order:

-0--0--0--0--0--0--0--0-
-0--0--0--0--0--0--0--0-
-9--6--9--6--6--6--3--8-
-9--7--9--7--6--7--4--9-
-7--7--7--7--4--7--4--9-
-0--5--0--5--0--5--2--7-

and then theres a solo thing with no acoustic, but the chord progression is
something like E-A-E-B, then it goes back to the chorus.

by the way, i tabbed the "beautiful letdown" version, not the "learning to
breathe" version.  i think like 1 or 2 chords are different in the whole thing.
and another note, in the beginning and on the verse where i have the x's for
muted strings, it's optional to mute the strings, i just think it sounds better
that way and its closer to the original version.  it still sounds fine to leave
the strings open, though.

Comments about this tab

Tanman1223 - 2004-05-04

How do you play the little "solo" on i think the electric guitar during the second verse? I couldn't find it on any of the tabs here.


p2008j - 2004-06-06

The solo goes like this:

e-00-0-0-00000000-000000000000-777777777777-11(fast 8x)-12(fast 8x)-----------|
B-55-7-9-55555555-888888888888-555555555555-10(fast 8x)-10(fast 8x)-----------|
G-----------------999999999999------------------------------------------------|
D-----------------------------------------------------------------------------|
A-----------------------------------------------------------------------------|
E-----------------------------------------------------------------------------|

then you go back to the chorus, and that's all.


p2008j - 2004-06-12

On the solo I posted it misstyped on one part it's 10 instead of 8
9 9


Wesley7777 - 2004-06-14

what part is 8 9 9


souljahrar - 2004-08-07

The second part of the verse, where Jon sings "what happens next- what happens next" the tab is wrong. I have no idea what it is to replace it, but I know it's not this fingering.


nickman945236 - 2004-08-26

I've listened to this sooo many times... the solo thingy goes as follows...

(each chord 16 times fast)

e-0----0----0----11b12
B-0----10---0----12---
G-9----9----9----9----

just use a lotta distortion... it sounds JUST like the cd


josh2000 - 2004-10-05

I have this whole cd memorized. the 2nd part of the verse, the "what happens next..." is: e: 0... 0
B: 8... 0
G: 7... 8
D: 5... 9

Hey nickman, good job on the solo, if been looking for the COMPLETELY correct way, and mine was close, but yours is right on.


sixstringes777 - 2004-11-06

awsome tabs!!!


jsoccer - 2004-12-08

nice


Grambo_4 - 2004-12-09

yes, the "hazy" part that evrey one keeps referring to - "what happens next..."
I am not sure, but I think it goes like this:
0000000000000000 0000000000000000
0000000000000000 0000000000000000
7777777777777777 8888888888888888
5555555555555555 9999999999999999
xxxxxxxxxxxxxxxx xxxxxxxxxxxxxxxx
xxxxxxxxxxxxxxxx xxxxxxxxxxxxxxxx
Hope that's right. I think I'm going to get the official music soon, maybe that will help with corrections! Never theless I learned to play this song with this very same tab I am correcting, so thank you anyways!


jsoccer - 2004-12-09

solo
^
e0-0-0-0-0-0-0-0-0-0-0-0-0-0-0-9-9-9-9-9-9-17-17-17|seventeen
b5-5-7-7-9-9-9-9-9-9-9-9-9-9-9-7-7-7-7-7-7-16-16-16|sixteen
g------------------7-7-7-7-7-7---------------------|


chevelle04 - 2004-12-12

e/oooooooooooo00000000000000000000000
b/555555555555101010101010101212121212 slide to end of frets in same postition
g/------------999999999999991111111111

that be the solo(10 this is a ten,11 this is eleven, 12 this is twelve
thanx


chevelle04 - 2004-12-12

nick mans sound good but the above is how my band plays it


rock4christ08 - 2005-02-28

dude, frikkin shweet! nice tab phoo. -ray


marc11 - 2005-03-06

I'm not sure but i think the chorus goes E B A A and not E B A B


Mr. Switchfoot - 2005-03-07

the chorus is E B A B and the solo goes like this:

e|-0-0-0-0-0-0-0-0-0-0-0-0-0-0-0-0-0-0-0-0-0-0-0-0-0-0-0-0-0-0-0-0-|
B|-5-5-5-5-5-5-5-5-5-5-5-5-5-5-5-5-7-7-7-7-7-7-7-7-7-7-7-7-7-7-7-7-|

then

e|-0--0--0--0--0--0--0--0--0--0--0--0--0--0--0--0--|
B|-12-12-12-12-12-12-12-12-12-12-12-12-12-12-12-12-|

then

e|-0---0---0---0---|
B|-14b-14b-14b-14b-| just keep bending farther and farther until u go back to the chorus


then the "What happens next" part goes like this:

e|-0-0-0-0-0-0-0-0-0-0-0-0-0-0-0-0--0-0-0-0-0-0-0-0-0-0-0-0-0-0-0-0-|
B|-0-0-0-0-0-0-0-0-0-0-0-0-0-0-0-0--0-0-0-0-0-0-0-0-0-0-0-0-0-0-0-0-|
G|-6-6-6-6-6-6-6-6-6-6-6-6-6-6-6-6--2-2-2-2-2-2-2-2-2-2-2-2-2-2-2-2-|
D|-4-4-4-4-4-4-4-4-4-4-4-4-4-4-4-4--2-2-2-2-2-2-2-2-2-2-2-2-2-2-2-2-|
A|------------------------------------------------------------------|
E|------------------------------------------------------------------|


Ryan Freeland - 2005-03-24

Hey great tab! That is the same tab I use for the intro too, and it sounds the best!


SG_man_22 - 2005-03-30

i am pretty sure this is how the solo goes:

E-0-0-0-0-0-0-0-0-0-0-0-0-0-5-5-5-5-5-5-5-5-5-5-5-5-5-0-0-0-0-0-0-0-0-0-0-0-0-0-b11

all of that is done on the E string


Mr. Switchfoot - 2005-04-08

its on the "e" and "B" strings like i posted above


SG_man_22 - 2005-04-28

sorry i was wrong u guys know better mine sounds ok but there is deffinately something missing i havent tried all of the differant solos but im gonna go do that now
thanks


blutgr3 - 2005-05-23

very, very nice tab.
totally correct, well i think.


misterman - 2005-06-26

This tab is wrong. It's not even in the right tuning.


sixstringes777 - 2005-06-28

the real way to play the solo:

e-000--00000000000--0-0-0-0-0-0-0-0-0-0-0-0-0-0------
b-557/955555555555-1010101010101010101010101010------
g----------------------------------------------------

e--0-0-0-0-0-0-0-0-0-0-0-0-0-0-----------------------
b-1212121212121212121212121212--14b15----------------
g----------------------------------------------------

great tab


sixstringes777 - 2005-06-28

those are 10's and 12's

just so you know


apostlescreed91 - 2005-06-30

the chorus is E B Asus2 B, not A


Strumming4Jesus - 2005-07-11

Hey dude awesome job on the tab!
But after they play the chorus for the first time, then he goes: "welcome to the fall out"...

what chords are u playing during that?


KT1522 - 2005-07-21

hey u guys r really good at all correcting tabs and helping ppl out. With some of the corrections i think it sounds awesome good job KT


KT1522 - 2005-07-21

hey u guys r really good at all correcting tabs and helping ppl out. With some of the corrections i think it sounds awesome good job ~KT~


united777 - 2005-07-24

ok: i was asked to play dare you to move with these chords.

Intro:
E E5 E2 E5

and so on
can you tell me what version of these chords sounds best A.S.A.P.
I NEED YOUR HELP QUICK!!!


overdrive777 - 2005-10-26

Jon plays the solo like this in the acustic version

e-00000000000000----0-0-0-0-0-0-0-0-0-0-0-0-0-0-0--
b-55555555555555/--101010101010101010101010101010/-
g--------------------------------------------------

e--0-0-0-0-0-0-0-0-0-0-0-0-0-0---------------------
b-1212121212121212121212121212--4sb5---------------
g--------------------------------------------------

sb= slow bend


monz8328 - 2006-03-23

when it goes to welcome to the fallout
i think it goes
guitar 1
e-0-0-0-0-0-0-0-0-0-0-0-0-0-0-0-0--
b-0-0-0-0-0-0-0-0-0-0-0-0-0-0-0-0--
g-7-7-7-7-7-7-7-7-7-7-7-7-7-7-7-7--
d-9-9-9-9-9-9-9-9-9-9-9-9-9-9-9-9--
guitar 1
e-0-0-0-0-0-0-0-0-0-0-0-0-0-0-0-0--
b-0-0-0-0-0-0-0-0-0-0-0-0-0-0-0-0--
g-9-9-9-9-9-9-9-9-9-9-9-9-9-9-9-9--
d-7-7-7-7-7-7-7-7-7-7-7-7-7-7-7-7--
gutiar 2
g--------------------------------
d-9-11-11-11-x-x-9-11-11-11-x-x--
a-x--x--x--x-x-x-x--x--x--x-x-x--
e-7--9--9--9-x-x-7--9--9--9-x-x--
guitar 2
g------------
d-11-11-9-9--
a--x--x-x-x--
e--9--9-7-7--


monz8328 - 2006-03-23

guitar 1 is acoutstic
guitar 2 is eletric


monz8328 - 2006-03-23

i mean electric


monz8328 - 2006-03-23

oh yea guitar 2 plays that twice
then goes to
d------------------------------
a-4-4---4-x-4-4---4-x-4-4-6-6--
e-2-2-0-2-x-2-2-0-2-x-2-2-4-4--

d------------------------------
a-7-7-7-7-x-7-7-7-7-x-7-7-9-9--
e-5-5-5-5-x-5-5-5-5-x-5-5-7-7--

listen for the timing
guitar 1 continues to
play the same thing as
before


JESUSFReaK301 - 2006-04-26

what tuning is it in, Standard?
Sorry


jetfire6914 - 2006-05-04

Ok you all did good so far, But this is how it goes. The "Switchfoot" Way!

(Intro)
C#m7 E5 E E5 Asus2
e(---0---0---0--0--0--0--0--0--0--0--0--0--0--0--0--0--0--0--0--0--0--0--0--0-
G(--12--12--12--0--0--0--0--0--0--0--0--0--0--0--0--0--0--0--0--0--0--0--0--0-
B(---X----------x-------13-13-13--X--X--------X-----------X-----------X-----X-
D(--11----------9-----------------9--9--------9-----------7-----------7-----7-
A(----------------------------------------------------------------------------
E(----------------------------------------------------------------------------

F#7sus4 [Asus2] Gadd6 Badd4 [E5] Aadd9
e(-0--0--0--0--0--0--0--0--0---) (-0-) (-0-) (-0-) (-0-) (-0-) (-0-)
G(-0--0--0--0--0--0--0--0--0---) (-0-) (-0-) (-0-) (-0-) (-0-) (-0-)
B(----X------------------------) (-6-) (-9-) (-7-) (-8-) (-9-) (-6-)
D(----7------------------------) (-4-) (-7-) (-5-) (-9-) (-9-) (-7-)
A(-----------------------------) (---) (---) (---) (-9-) (-7-) (-7-)
E(-----------------------------) (---) (---) (---) (---) (---) (---)

The "X" is a muted string, you place your finger on the string but do not press in down, This gives you the intended three string Power chord.

Play intro twice:

C#m7 E5 E E5 Asus2
..............................welcome to the


C#m7 E5 E E5 Asus2
planet........................welcome to


C#m7 E5 E E5 Asus2 F#7sus4
existance.....................Everyones here....

[Asus2]
..........everyones here..........Everybody's

C#m7 E5 E E5 Asus2
watching you now..................Everybody

C#m7 E5 E E5 Asus2
waits for you now.................what happens

Gadd4 Badd4
next............... what happens next

[E5] Badd4
i dare you to move............... i dare you to move

Aadd9
i dare you to lift yourself up off the floor.......

[E5} Badd4
i dare you to move............... i dare you to move

Aadd9 Badd4 N.C. (no chord)
like to day never happened..... today never happened before



When you Get To "welcome to the Fall Out" The second Guitar (electric)Goes:

(------------------------------------------------------------)
(------------------------------------------------------------)
(------------------------------------------------------------)
(--9//11---11---11----X----9//11---11---11---X---11//9---9---)
(--X--------X----X----X----X--------X----X---X----X------X---)
(--7//9-----9----9----X----7//9-----9----9---X----9//7---7---)


I'm leaving it up to you to figure out the rest of the song. If you listen to the song you can figue it out because it just keeps repeating.

Rock On Peeps!! Jetfire Out


jetfire6914 - 2006-05-04

Ok you all did good so far, But this is how it goes. The "Switchfoot" Way!

(Intro)
____C#m7________E5_______E________E5_____________________Asus2
e(---0---0---0--0--0--0--0--0--0--0--0--0--0--0--0--0--0--0--0--0--0--0--0
G(--12--12--12--0--0--0--0--0--0--0--0--0--0--0--0--0--0--0--0--0--0--0--0
B(---X----------x-------13-13-13--X--X--------X-----------X-----------X---
D(--11----------9-----------------9--9--------9-----------7-----------7---
A(------------------------------------------------------------------------
E(------------------------------------------------------------------------

F#7sus4 [Asus2] Gadd6 Badd4 [E5] Aadd9
e(-0--0--0--0--0--0--0--0--0---) (-0-) (-0-) (-0-) (-0-) (-0-) (-0-)
G(-0--0--0--0--0--0--0--0--0---) (-0-) (-0-) (-0-) (-0-) (-0-) (-0-)
B(-X-----X---------------------) (-6-) (-9-) (-7-) (-8-) (-9-) (-6-)
D(-7-----7---------------------) (-4-) (-7-) (-5-) (-9-) (-9-) (-7-)
A(-----------------------------) (---) (---) (---) (-9-) (-7-) (-7-)
E(-----------------------------) (---) (---) (---) (---) (---) (---)

The "X" is a muted string, you place your finger on the string but do not press in down, This gives you the intended three string Power chord.

Play intro twice:

C#m7_E5_E_E5______Asus2
..............................welcome to the


C#m7_E5_E_E5______Asus2
planet........................welcome to


C#m7_E5_E_E5______Asus2________________F#7sus4
existance.....................Everyones here....

___________________[Asus2]
..........everyones here..........Everybody's

C#m7_E5_E_E5________Asus2
watching you now..................Everybody

C#m7_E5_E_E5________Asus2
waits for you now.................what happens

Gadd4____________________________Badd4
next............... what happens next

______________[E5]______________________________Badd4
i dare you to move............... i dare you to move

______________Aadd9
i dare you to lift yourself up off the floor.......

______________[E5]_____________________________Badd4
i dare you to move............... i dare you to move

____________________Aadd9____________________Badd4_____N.C. (no chord)
like to day never happened..... today never happened before



When you Get To "welcome to the Fall Out" The second Guitar (electric)Goes:

(------------------------------------------------------------)
(------------------------------------------------------------)
(------------------------------------------------------------)
(--9//11---11---11----X----9//11---11---11---X---11//9---9---)
(--X--------X----X----X----X--------X----X---X----X------X---)
(--7//9-----9----9----X----7//9-----9----9---X----9//7---7---)


I'm leaving it up to you to figure out the rest of the song. If you listen to the song you can figue it out because it just keeps repeating.

Rock On Peeps!! Jetfire Out


jkim519 - 2006-06-02

Actually when you get to the "Welcome to the fall out" it goes:

D:---9/11--11-11-11-9/11--11-11-11--11-11-9-9
A:---9/11--11-11-11-9/11--11-11-11--11-11-9-9
E:---7/9--9-9-9-7/9--9-9-9--9-9-7-7----------

and then after this goes twice it goes:

D:---4-4-4-4-4--4-4-4-4-4--4-4-6-6-7-7-7-7-7--7-7-7-7-7--7-7-9-9
A:---4-4-4-4-4--4-4-4-4-4--4-4-6-6-7-7-7-7-7--7-7-7-7-7--7-7-9-9
E:---2-2-2-2-2--2-2-2-2-2--2-2-4-4-5-5-5-5-5--5-5-5-5-5--5-5-7-7

then go back to

D:---9/11--11-11-11-9/11--11-11-11--11-11-9-9
A:---9/11--11-11-11-9/11--11-11-11--11-11-9-9
E:---7/9--9-9-9-7/9--9-9-9--9-9-7-7----------

then after this the first time play

D:---4-4-4-4-4--4-4-4-4-4--4-4-6-6-7-7-7-7-7--7-7-7-7-7--7-7-9-9
A:---4-4-4-4-4--4-4-4-4-4--4-4-6-6-7-7-7-7-7--7-7-7-7-7--7-7-9-9
E:---2-2-2-2-2--2-2-2-2-2--2-2-4-4-5-5-5-5-5--5-5-5-5-5--5-5-7-7

then go to the chorus


Guitar4GOD rio - 2006-10-01

This song is too complicated for newbies.It is a good tab though...


underoathlover - 2006-10-12

GOOD JOB!!! but i have correction....shouldnt the intro part that goes 0099XX be
00911XX. just a question...please...someone correct me if im wrong!!!


wowbertmz024 - 2006-12-25

This is great!


Switchfoot_ - 2007-01-22

good tab,but not the way they play it.her is the way they play it:

Dare you to move
Switchfoot-The beautiful letdown

Intro: E E5 E2 E5


E E5 E2 E5
Welcome to the planet
E E5 E2 E5
Welcome to existence
F#m B
Everyone's here, everyone's here
E E5 E2 E5
Everybody's watching you now
E E5 E2 E5
Everybody waits for you now
F#m B
What happens next? What happens next?

E5
I dare you to move
B
I dare you to move
A2
I dare you to lift yourself up off the floor
B E5
I dare you to move
B
I dare you to move
A2
Like today never happened
B (Silence)
Today never happened before

E E5 E2 E5 E E5 E2 E5

C#m A2
Welcome to the fallout
C#m A2
Welcome to resistance
F#m
The tension is here
B
The tension is here
C#m A2
Between who you are and who you could be
C#m A2
Between how it is and how it should be, yeah

E5
I dare you to move
B
I dare you to move
A2
I dare you to lift yourself up off the floor
B E5
I dare you to move
B
I dare you to move
A2
Like today never happened
B
Today never happened
E5 A2
Maybe redemption has stories to tell
E5 A2
Maybe forgiveness is right where you fell
C#m A2
Where can you run to escape from yourself
F#m B
Where you gonna go? Where you gonna go?
E5 A2 E5 B
Salvation is here

E5
I dare you to move
B
I dare you to move
A2
I dare you to lift yourself up off the floor
B E5
I dare you to move
B
I dare you to move
A2
Like today never happened
C#m
Today never happened
A2
Today never happened
B E5
Today never happened before






There it is.the solo is with two guitars(the whole song is)but this is just one guitar.still,very,very nice try!


Switchfoot_ - 2007-01-22

by the way,tunning is half a step down.


Add a comment/correction

Complimentary Christian Ringtones
Dadamobile and CGR have teamed up to bring your favorite Christian artists right to your phone. Sign up today and get 10 complementary ringtones!
Tab Country
Did you know CGR has a sister site w/ country guitar tabs? Well we do! Its called Tab Country. It has a great archive with a lot of country tabs.
Rockin Tabs
Are you looking for a site that has rock guitar tabs? Then Rockintabs.com is the place for you. It is a budding site with many rock guitar tabs. Submit your tab today.
Tab Gallery
Tab Gallery has a compilation of christian, rock, and country tabs all in one place. Come visit us.