Guitar Tabs
song title    band name

Join Us Today!

Don't strum alone...
be a part of the largest online Christian music community. Browse thousands of guitar tabs and chat w/ musicians like yourself.


It's Free!

This tab has been rated a 3.91 out of 5 for accuracy. (11 votes)Sorry, but you must be logged in to rate this tab.
Click here to log-in, or you can click here to register.
(Registration is free)

All songs owned by corresponding publishing company. If you make copies of any song on this website, be sure to report your usage to CCLI.
Submitted by: jjjjord

Artist: Chris Rice
Song: Untitled Hymn (Come to Jesus)
Album: Run the Earth, Watch the Sky
Copyright 2003 Rocketown Records

Tabbed By: Jon Jordan
Email: jjjjord@erols.com

This song is performed by Chris Rice on the piano but I tabbed 
it so that it would be possible to play on guitar.  You must 
fingerpick this song.

Intro/verse:

             G    Am     B/G    Dm    Em   F       Dm

-0--1--3-------------------------------------------------
----------1--0-----1------3-----6-----8----10------6-----
-----------------------------0-----7-----9-----10-----7--
----------------0-----0----------------------------------
-------------------0------2-----5-----7-----8------5-----
-------------3-------------------------------------------

 C

-------------3----------------------
-3--------1-----0-------------------
-------0----------------------------
----0-------------------------------
-2----------------------------------
------------------------------------

Chorus:
   
 C                       F
         
-3-----------0--------3--3--------3--1--------1------
----------1-----1--------------1-----------1---------
-------0-----------0--------2-----------2------------
----2--------------------3---------------------------
-3---------------------------------------------------
-----------------------------------------------------

  C           G            C

--0------------------------0-------------------------
-----------1--0--------0---1-------------------------
--------0-----------0------0-------------------------
-----2-----------0---------2-------------------------
--3------------------------3-------------------------
--------------3--------------------------------------

Somewhere in the middle of the song everything is raised a half
step making it very difficult to play on guitar.  Its not necessary 
to do this when you play this song unless you want to play along.

Comments about this tab

TopDawg2002 - 2004-01-13

Heh, maybe someone could stand by and move the capo up a half-step each time it changes. :-P


Pooh-B Ortega - 2004-02-04

wheres the verse, thats only the intro


tomdeighan - 2004-03-15

Let's keep our comments constructive. Great song. This tab helped with chorus.


tomdeighan - 2004-03-24

The verses are c g/ g f/ f g He did a good job, otherwise.


Adam K - 2004-05-03

Intro
C F C
G Am7 G
Dm C F G

Verse
C F C
G Am7 G
Dm C F G

Chorus
C F C G C

Verse 2(same as verse 1)
Chorus

Verse 3
C# F# C#
G# Bbm7 G#
D#m7 C# F# G#

Chorus 2
C# F# C# G# C#

Verse 4
(Same as verse 3)
Chorus 2

Verse 5
D# G# D#
Bb Cm7 Bb
Fm D# G# Bb

Chorus 3
D# G# D# Bb D#

Verse 6
(same as verse 5)
Chorus 3(x2)

Adam K


dReAmIn4EvEr - 2004-10-10

actually on his newest cd there is a live version of this song that is played on guitar, it sounds just as awesome as the piano one


post mortem - 2004-10-17

what better way to jam with this song with a piano and a real one at that and not some fancy keyb, anyway good trans....


kona1611 - 2004-10-27

Or, to make it easier to play on guitar. Either:
1. Capo on 1 and play in keys of B -> C -> D
2a. Capo on 8 and play in keys of E -> F -> G
2b. Detune guitar 1/2 step and capo on 7 to play in keys of E -> F -> G


misschicky2291 - 2005-02-11

Okay first of all...what an amazing song. And second of all, really really great tab. Really great job! If you're having any trouble with this keep at it because it's definitly worth it.


monkey_mel5 - 2005-03-12

I think I know this song, but could anyone post a few lyrics to it. It doesn't have to have the tabs with it (due to copywright laws) but just to see if it's the song I'm thinking of.

rockin' the cross


Nikkicat - 2005-03-29

SO like, what is the lyrics?


sKaRoCkS - 2005-05-26

this song is in an octive lower. you have the notes pretty good though.


oh4himalone - 2006-04-15

Lyrics can be found at this link-
http://www.anychristianlyrics.com/index.php?cmd=6&recid=41


squtternutbosh7 - 2007-02-20

Hate to break it to you all but this TAB isnt even even close to being correct. I purchase the official Guitar TAB sheet music for this song a few months ago. The song is pretty difficult to play. There are 2 key changes. One is at the end of verse 2/beginning of verse 3 and the other is at the end of verse 4/beginning of verse 5. Verses 1 & 2 are played without a Capo. Verses 3 & 4 are played with a Capo on the 1st Fret and Verses 5 & 6 are played with a Capo on the 3rd Fret.


Add a comment/correction

Complimentary Christian Ringtones
Dadamobile and CGR have teamed up to bring your favorite Christian artists right to your phone. Sign up today and get 10 complementary ringtones!
Tab Country
Did you know CGR has a sister site w/ country guitar tabs? Well we do! Its called Tab Country. It has a great archive with a lot of country tabs.
Rockin Tabs
Are you looking for a site that has rock guitar tabs? Then Rockintabs.com is the place for you. It is a budding site with many rock guitar tabs. Submit your tab today.
Tab Gallery
Tab Gallery has a compilation of christian, rock, and country tabs all in one place. Come visit us.