Guitar Tabs
song title    band name

Join Us Today!

Don't strum alone...
be a part of the largest online Christian music community. Browse thousands of guitar tabs and chat w/ musicians like yourself.


It's Free!

This tab has been rated a 3.00 out of 5 for accuracy. (1 vote)Sorry, but you must be logged in to rate this tab.
Click here to log-in, or you can click here to register.
(Registration is free)

All songs owned by corresponding publishing company. If you make copies of any song on this website, be sure to report your usage to CCLI.
Submitted by: Chunkfunk

Softer To Me
Relient K

Intro

I saw all the other tabs for the intro on this site and they were either in
the wrong key or in the wrong rythmn, so i decided to set it straight. This
is 100% correct.
~ = let ring
Guitar 1
E--------------------------------------------
B--------------------------------------------
G-5565-5565-5----5-----------8---------------
D------------333--333-6686-66-6-5565-5565----
A--------------------------------------------
E--------------------------------------------

Guitar 2
E-------------------------------------
B-------------------------------------
G--------666666-----------------------
D-333333-666666-666666-888888--------- Comes in on 2nd time around for guitar 
A-333333-444444-666666-888888--------- 1's riff w/:
E-111111--------444444-666666---------    G---------
 Start playing this on 3rd time around    D-3~~~----
                                          A-3~~~----
                                          E-1~~~----
As Always, listen to the song to get the rhythm and timing on the notes. This
is just a mere guide, but you'll find out the chords are correct, just play
it how you will. Leave an email at Dwilly677@aol.com if you have comments
or even corrections if you know any. I'll be tabbing the whole song soon.
Peace out, and see these guys live!
Dan Wilson

Comments about this tab

Jake the Snake - 2004-02-16

instead of the 5 on the g down to the 3 on the d it is

5 5
6 6 6 6 6 6

if that makes any sense


GENERATIONSLTC - 2004-08-14

this is wrong!!! i have seen them in concert and this is how they play it.

d---10-10-11-10-10-11------10----10----10--------------------------------------
a-----------------------11----11----11------11-11-13-11-11-13-10-10-11-10-10-11
e------------------------------------------------------------------------------


Add a comment/correction

Complimentary Christian Ringtones
Dadamobile and CGR have teamed up to bring your favorite Christian artists right to your phone. Sign up today and get 10 complementary ringtones!
Tab Country
Did you know CGR has a sister site w/ country guitar tabs? Well we do! Its called Tab Country. It has a great archive with a lot of country tabs.
Rockin Tabs
Are you looking for a site that has rock guitar tabs? Then Rockintabs.com is the place for you. It is a budding site with many rock guitar tabs. Submit your tab today.
Tab Gallery
Tab Gallery has a compilation of christian, rock, and country tabs all in one place. Come visit us.