Guitar Tabs
song title    band name

Join Us Today!

Don't strum alone...
be a part of the largest online Christian music community. Browse thousands of guitar tabs and chat w/ musicians like yourself.


It's Free!

Disciple - Mudd Puddle

This tab has been rated a 3.67 out of 5 for accuracy. (3 votes)Sorry, but you must be logged in to rate this tab.
Click here to log-in, or you can click here to register.
(Registration is free)

All songs owned by corresponding publishing company. If you make copies of any song on this website, be sure to report your usage to CCLI.
Mudd Puddle
Disciple
Jeremy Green (bigpigman@hotmail.com)
Copywrite:1999 Rugged Records/Rugged Music International


This is my first tab so be sure and send me comments, suggestions, or just
tell me how bad it is.



Intro and Verse:
|--------------------|
|--------------------|
|-----3-------8------|
|---3---3---8---8----|
|-1-------6----------|
|--------------------|


After intro (many times)          
|--------------------|
|--------------------|
|-3xxx3xxx3333-------|
|-3xxx3xxx3333-------|
|-1xxx1xxx1111-------|
|--------------------|

Play above part during "I know......." part  and after "..crying in a mud puddle"


|-----------------------------------------------------------------------------|
|-----------------------------------------------------------------------------|
|-3---3-----3--3----3----8------8---- 10--10---10------8----3-----3-10-8-3----|
|-3---3-----3--3----3----8------8-----10--10---10------8----3-----3-10-8-3----|
|-1---1-----1--1----1----6------6-----8---8----8-------6----1-----1-8--6-1----|
|-----------------------------------------------------------------------------|
  I feel like dying when you curse me up one end and down another
  (Continue for rest of chorus)
  Note: doesn't show exactly how many times to play each part


Outro:
|----------------|
|----------------|
|----------------|
|------3---------|
|----1---1-------|
|----------------|



bigpigman@hotmail.com

Jeremy's Christian Rock World-http://window.to/jeusus

Comments about this tab

sanctusfan14 - 2005-08-25

the intro/verse is right at first, but he does some other stuff in there.
also, the thing right after the verse(prechorus? meh) instead of playing it at
g-3
d-3
a-1 i would play it at

d-8
a-8
d-8 and then slide up some, if you listen to the song you can tell when.


Add a comment/correction

Complimentary Christian Ringtones
Dadamobile and CGR have teamed up to bring your favorite Christian artists right to your phone. Sign up today and get 10 complementary ringtones!
Tab Country
Did you know CGR has a sister site w/ country guitar tabs? Well we do! Its called Tab Country. It has a great archive with a lot of country tabs.
Rockin Tabs
Are you looking for a site that has rock guitar tabs? Then Rockintabs.com is the place for you. It is a budding site with many rock guitar tabs. Submit your tab today.
Tab Gallery
Tab Gallery has a compilation of christian, rock, and country tabs all in one place. Come visit us.