Guitar Tabs
song title    band name

Join Us Today!

Don't strum alone...
be a part of the largest online Christian music community. Browse thousands of guitar tabs and chat w/ musicians like yourself.


It's Free!

Disciple - Big Bad Wolf

This tab has not yet been rated for accuracy.Sorry, but you must be logged in to rate this tab.
Click here to log-in, or you can click here to register.
(Registration is free)

All songs owned by corresponding publishing company. If you make copies of any song on this website, be sure to report your usage to CCLI.
  Song:Big Bad Wolf
  Band:Disciple
  CD:This Might Sting A Little
  Copyright:c 1999 Rugged Records
  Tabbed by Ed Morones




     INTRO:
     play this 8x's       |after 8th time hold this G
  e-----------------------|-----| until the verse starts.
  B-----------------------|-----|
  G-----------------------|-----|
  D---2--2-0-2-0-2-5-0-2--|--5--|
  A---2--2-0-2-0-2-5-0-2--|--5--|
  E---0--0---------3---0--|--3--|


      VERSE:
    1:Touch           hurts           feel
    2:Hold            out             in
  e--------------------------------------------------
  B--------------------------------------------------
  G--------------------------------------------------
  D--------------------------------------------------
  A--p.m.............................................
  E---0-0-00-0000-00--0-0-00-0000-00--0-0-00-0000-00-



      pain           pierce         me
      my face        tempt          me
  e-------------------------------------------------
  B-------------------------------------------------
  G-------------------------------------------------
  D-------------------------------------------------
  A--p.m............................................
  E--0-0-00-0000-00--0-0-00-0000-00--0-0-00-0000-00-
  


      open          shame
      your          blame
  e------------------------------------------
  B------------------------------------------
  G------------------------------------------
  D------------------------------------------
  A--p.m.....................................
  E--0-0-00-0000-00--0-0-0000-0000-0000-0000-





  


   Hate me I've never been hated by anyone just quite like that
   Hate me I've never been hated by anyone just quite like that
  e------------------------------------------------------------
  B------------------------------------------------------------
  G------------------------------------------------------------
  D------------------------------------------------------------
  A-2---2--2----2--2---2---2--2--2---2--2---2----2-----2----2--
  E-0---0--0----0--0---0---0--0--0---0--0---0----0-----0----0--



    you do so full of lies as you despise my breath I hate you
    you do you always stand and accuse me to my face I hate you
  e-----------------------------------------------------------
  B-----------------------------------------------------------
  G-----------------------------------------------------------
  D-----------------------------------------------------------
  A-2---2---2--2--2----2---2--2---2--2-----2---2----2---2---2-
  E-0---0---0--0--0----0---0--0---0--0-----0---0----0---0---0-



    for all you've done to me and my family vengence belongs to 
    for all the things that you have stole from me vengeance
  e------------------------------------------------------------
  B------------------------------------------------------------
  G------------------------------------------------------------
  D------------------------------------------------------------
  A-2---2---2------2----2--2---2---2---2--2--2--2-----2--2----2
  E-0---0---0------0----0--0---0---0---0--0--0--0-----0--0----0



    God you're underneath His feet            |Basically play the E
    belongs to God you'll pay back seven fold.|with each syllable.
  e-------------------------------------------|
  B-------------------------------------------|
  G-------------------------------------------|
  D-------------------------------------------|
  A-2----2-----2--2---2----2---2--------------|
  E-0----0-----0--0---0----0---0--------------|



  PRE-CHORUS:1st. time
    Lord he's coming after me(x 4) save            me(x 4)
  e---------------------------------------------------------------
  B---------------------------------------------------------------
  G---------------------------------------------------------------
  D---------------------------------------------------------------
  A-p.m....---5----p.m....-5------p.m-5-p.m.----5-p.m-5-p.m....-5-
  E-0-----0---3----0-0-0-0-3------0-0-3-0-0-0-0-3-0-0-3-0-0-0-0-3-





 
  



  PRE-CHORUS:2nd time
    Lord he's coming after me(x 4)  save            me (x 2)
  e---------------------------------------------------------------
  B---------------------------------------------------------------
  G---------------------------------------------------------------
  D---------------------------------------2-0-2-0---------2-0-2-0-
  A-p.m........5----p.m.....5-----------5-2-0-2-0-5-----5-2-0-2-05
  E-0-----0----3----0-0-0-0-3-------0-0-3---------3-0-0-3--------3




    save me                   save me               please   
  e------------------------------------------------------------
  B------------------------------------------------------------
  G------------------------------------------------------------
  D---------------------------------------------------------2--
  A-----5-------5----5-------5-----5-------5-----5-------5--2--
  E-0-0-3-00-00-3-00-3-00-00-3-0-0-3-00-00-3-0-0-3-00-00-3--0--


  CHORUS:play the chorus just like part of the verses matching the 
   E to each syllable.After 2nd chorus go to solo.
  SOLO:
  e-------------------------------------------------------
  B-------------------------------------------------------
  G-------------------------------------------------------
  D------------------0-2-3-2~~~b(3)~~~0-2-0~~~sl.---------
  A---2~~~0-2-3-2~~~--------------------------/2~~~~~~~~~-
  E-------------------------------------------------------



   CHORUS:3rd time
    I knocked He opened up I ran right in now the big bad wolf 
  e------------------------------------------------------------
  B------------------------------------------------------------
  G------------------------------------------------------------
  D------------------------------------------------------------
  A---2-------2---2--2--2--2--2---2----2---2---2---2---2---2---
  E---0-------0---0--0--0--0--0---0----0---0---0---0---0---0---


                     OUTRO:
                       Play this riff 21 times there are different
     will never (x 4) ways to play it depending on lyrics
  e------------------|-------------|-
  B------------------|-------------|-
  G------------------|-------------|-
  D------------------|-2-0-2-5-0-2-|-
  A--2----2--2-------|-2-0-2-5-0-2-|-
  E--0----0--0-------|-------------|-


  end it like this
  e-------------------|
  B-------------------|
  G---------------sl.-|
  D--2-0-2-3~~~~~5\---|
  A--2-0-2-3~~~~~5\---|
  E-------------------|


       Listen to CD for timing etc...
   any q's or com's send email to
   annointedrock@annointedrock.christianguitar.ws
   GOD BLESS 

Comments about this tab

BROTOM - 2005-05-16

The tuning is way off. The song is played in drop c#(C#G#C#F#A#D#) and the pattern for the song is a little off but overall good job!


Add a comment/correction

Complimentary Christian Ringtones
Dadamobile and CGR have teamed up to bring your favorite Christian artists right to your phone. Sign up today and get 10 complementary ringtones!
Tab Country
Did you know CGR has a sister site w/ country guitar tabs? Well we do! Its called Tab Country. It has a great archive with a lot of country tabs.
Rockin Tabs
Are you looking for a site that has rock guitar tabs? Then Rockintabs.com is the place for you. It is a budding site with many rock guitar tabs. Submit your tab today.
Tab Gallery
Tab Gallery has a compilation of christian, rock, and country tabs all in one place. Come visit us.