Guitar Tabs
song title    band name

Join Us Today!

Don't strum alone...
be a part of the largest online Christian music community. Browse thousands of guitar tabs and chat w/ musicians like yourself.


It's Free!

This tab has been rated a 5.00 out of 5 for accuracy. (6 votes)Sorry, but you must be logged in to rate this tab.
Click here to log-in, or you can click here to register.
(Registration is free)

All songs owned by corresponding publishing company. If you make copies of any song on this website, be sure to report your usage to CCLI.
Submitted by: Crono801

Artist:  Five Iron Frenzy
Album:   Quanity is Job 1 [EP]
Label:   Five Minute Walk
Song:    "Dandelions
Tabber:  Josh Gambrell (crono801@charter.net)

Just a few minor corrections to the prechorus, chorus, and bridge.

B - xxx877
E - xxx454
A - xxx655
D - xxx232

Verse

B-E-A-D-A-E-A-E

Prechorus

e-----------------------------------------------------------------------
B-----------------------------------------------------------------------
G---11--12--14--16--11--13--14--10--11--13--14--16--7--6--9-------------
D---11--12--14--16--11--13--14--10--11--13--14--16--7--6--9--6----------
A---9---11--12--14--9---11--12--8---9---11--12--14--5--4--7--6----------
E------------------------------------------------------------4----------       

Chorus

e-----------------------------------------------------------------------
B-----------------------------------------------------------------------
G------9-----11--7--6--4--11--9-----------------------------------------
D---7--9--9--11--7--6--4--11--9-----------------------------------------
A---7--7--9--9---5--4--2--9---7-----------------------------------------
E---5-----7-------------------------------------------------------------

Play twice, the rhythm may be a bit tricky, listen to the song to figure it out.

Bridge

e-----------------------------------------------------------------------
B-----------------------------------------------------------------------
G---6--7-----9--6--7-----9--6--7--8--9--10--11--9--10-------------------
D---6--7--7--9--6--7--7--9--6--7--8--9--10--11--9--10-------------------
A---4--5--7--7--4--5--7--7--4--5--6--7--8---9---7--8--------------------
E---------5-----------5-------------------------------------------------


Woo... there it is.  Great song to cover if your band actually has horn players.  Lates.

Comments about this tab

Crono801 - 2004-01-17

Hey, this is Josh again... a few minor corrections.

In the prechorus, when you run through the riff the second time, instead of going from the 12-14-14 power chord to the 8-10-10, stick a 7-9-9 in there... listen to the song for the rhythm.

In the chorus, at the end when the first guitar goes

e----------------------------------------------------------
B----------------------------------------------------------
G---7--6--4--11--9-----------------------------------------
D---7--6--4--11--9-----------------------------------------
A---5--4--2--9---7-----------------------------------------
E----------------------------------------------------------

there is a second guitar that goes

e----------------------------------------------------------
B----------------------------------------------------------
G---7--6--7--6--4------------------------------------------
D---7--6--7--6--4------------------------------------------
A---5--4--5--4--2------------------------------------------
E----------------------------------------------------------

And finally, in the bridge, just play the bass note of the chord, and the first two 7-9-9's should be 6-8-8's.


Add a comment/correction

Complimentary Christian Ringtones
Dadamobile and CGR have teamed up to bring your favorite Christian artists right to your phone. Sign up today and get 10 complementary ringtones!
Tab Country
Did you know CGR has a sister site w/ country guitar tabs? Well we do! Its called Tab Country. It has a great archive with a lot of country tabs.
Rockin Tabs
Are you looking for a site that has rock guitar tabs? Then Rockintabs.com is the place for you. It is a budding site with many rock guitar tabs. Submit your tab today.
Tab Gallery
Tab Gallery has a compilation of christian, rock, and country tabs all in one place. Come visit us.