Guitar Tabs
song title    band name

Join Us Today!

Don't strum alone...
be a part of the largest online Christian music community. Browse thousands of guitar tabs and chat w/ musicians like yourself.


It's Free!

Dingees, The - You In My Heart

This tab has not yet been rated for accuracy.Sorry, but you must be logged in to rate this tab.
Click here to log-in, or you can click here to register.
(Registration is free)

All songs owned by corresponding publishing company. If you make copies of any song on this website, be sure to report your usage to CCLI.
Song: You in My Heart
Band: The Dingees
Album: Sundown to Midnight
Copyright Thirsty Moon River Publishing Inc. (ASCAP)
Tabbed by Todd Nicholson (crazymescan@hotmail.com)

chords used in this song
e|----0----0----1----3----|
B|----1----0----1----0----|
G|----0----0----2----0----|
D|----2----2----3----0----|
A|----3----2----3----2----|
E|---------0----1----3----|
      C    Em   F    G

(intro)
e|-------------------------------------------------|
B|-------------------------------------------------|
G|-------------------------------------------------|
D|--0-2-2-2-2h3p2---0-2-2-2-2h3p2------------------|
A|3---------------3---------------3-2-------3-2----|
E|------------------------------------3-3-3-----3-3|

e|--------------------------------------3-------3|
B|--------------------------------------0-------0|
G|--------------------------------------0-------0|
D|--0-2-2-2-2h3p2---0-2-2-2-2h3p2-------0-------0|
A|3---------------3---------------3-2---2-3-2---2|
E|------------------------------------3-3-----3-3|


(verse 1)
C
Hard times are callin' for hard hearts
        Em
Take me in with the prestige turn me out an upstart
      C
While backbiters encamped all around me
                   Em
What thought split out in their mind that turn us into enemies

(chorus)
F                 G            C
All I got left to hold onto is You in my heart
F                 G            C
All I got left to hold onto is You in my heart
F                      G
The more I'm left with nothing but You
Em                     F
The more I see I gotta hold onto
F                 G            C
All I got left to hold onto is You

(verse 2)
C                                   Em
They conspire all day they watch my steps
                                     C
But I will not strike my foot upon a stone
                             Em
I've been lifted high upon a rock

Where out of range of harm I can carry on

(repeat chorus)

end with this
e|--------------------------------------3|
B|--------------------------------------0|
G|--------------------------------------0|
D|--0-2-2-2-2h3p2---0-2-2-2-2h3p2-------0|
A|3---------------3---------------3-2---2|
E|------------------------------------3-3|

Comments about this tab

No comments/corrections found. Add your own

Complimentary Christian Ringtones
Dadamobile and CGR have teamed up to bring your favorite Christian artists right to your phone. Sign up today and get 10 complementary ringtones!
Tab Country
Did you know CGR has a sister site w/ country guitar tabs? Well we do! Its called Tab Country. It has a great archive with a lot of country tabs.
Rockin Tabs
Are you looking for a site that has rock guitar tabs? Then Rockintabs.com is the place for you. It is a budding site with many rock guitar tabs. Submit your tab today.
Tab Gallery
Tab Gallery has a compilation of christian, rock, and country tabs all in one place. Come visit us.