Guitar Tabs
song title    band name

Join Us Today!

Don't strum alone...
be a part of the largest online Christian music community. Browse thousands of guitar tabs and chat w/ musicians like yourself.


It's Free!

Kutless - Your Touch

This tab has been rated a 3.00 out of 5 for accuracy. (3 votes)Sorry, but you must be logged in to rate this tab.
Click here to log-in, or you can click here to register.
(Registration is free)

All songs owned by corresponding publishing company. If you make copies of any song on this website, be sure to report your usage to CCLI.
Submitted by: winston856

Title: Your touch
Artist: Kutless
Album: Kutless (self titled)

The last guy who posted this song almost had it, but not quite. So I have
posted this almost same thing exept I corrected the errors that he made. 



Intro/VERSE1
E-----------------------------------------------------------------------------
B-----------------------------------------------------------------------------
G----------------------------------------12-----------------10----------------
D-------5-8-5----------8-10-8---------10----10------------8----8-----(3X)-----
A-----5-------5------8-------------10----------10-------8---------------------
D---5-----------5--8------------10----------------10--8-----------------------

 Pre-chorus--listen to cd for timing
E---------------------------------------------------------------------------
B---------------------------------------------------------------------------
G---------------------------------------------------------------------------
D---1--3--5-------5--------5---------------1--3---10--10-10-10--------------
A---1--3--5-----------5--------5-----------1--3---10--10-10-10--------------
D---1--3--5------------------------5-------1--3---10--10-10-10--------------


CHORUS
E-----------------------------------------------------------------------------
B-----------------------------------------------------------------------------
G-----------------------------------------------------------------------------
D----5---5--5-----888---8---3-3--333--3---1-----------------------------------
A----5---5--5-----888---8---3-3--333--3---1--(quickly repeat)-----------------
D----5---5--5-----888---8---3-3--333--3---1-----------------------------------

verse2

E-----------------------------------------------------------------------------
B-----------------------------------------------------------------------------
G-----------------------------------------------------------------------------
D----5--8-----8---10----10--12-----8---10-----(3x)----------------------------
A----5----5---8------8--10----10---8-----8------------------------------------
D----5--------8---------10---------8------------------------------------------

repeat Pre-Chorus

repeat Chorus

bridge intro
E-----------------------------------------------------------------------------
B-----------------------------------------------------------------------------
G-----------------------------------------------------------------------------
D-----5---8---3----10------5---8---3------------------------------------------
A-----5---8---3-------10---5---8---3------------------------------------------
D-----5---8---3------------5---8---3------------------------------------------

Bridge--guitar 1                    Guitar2      
E-------------------------------|--------------|
B-------------------------------|--------------|
G-------------------------------|--------------|
D-------------------------------|------0-------|
A------3-----------------(4x)---|------0-pm----|
D----------5--3--5--0-----------|------0-------|

guitar1 play bridge 4X then guitar2 palm mute starts and guitar1 repeat
brigde riff (4X)

guitar1                              both guitars
E------------------------------------------------------------------------
B------------------------------------------------------------------------
G------------------------------------------------------------------------
D-------------------------------------0---0--0--0------------------------
A------5---3-------------(4x)---------0---0--0--0-mute-------------------
D-------------3---5--0----------------0---0--0--0------------------------

E------------------------------------------------------------------------
B------------------------------------------------------------------------
G------------------------------------------------------------------------
D-------0-0--3/5--000--5\3-----------------------------------------------
A-------0-0--3/5--000--5\3--repeat a lot---------------------------------
D-------0-0--3/5--000--5\3-----------------------------------------------

repeat like 15 times just listen to the cd 

repeat Chorus (7or8x)

CHORUS
E-----------------------------------------------------------------------------
B-----------------------------------------------------------------------------
G-----------------------------------------------------------------------------
D----5---5--5-----888---8---3-3--333--3---1-----------end on----5-------------
A----5---5--5-----888---8---3-3--333--3---1---------------------5-------------
D----5---5--5-----888---8---3-3--333--3---1---------------------5-------------

Comments about this tab

No comments/corrections found. Add your own

Complimentary Christian Ringtones
Dadamobile and CGR have teamed up to bring your favorite Christian artists right to your phone. Sign up today and get 10 complementary ringtones!
Tab Country
Did you know CGR has a sister site w/ country guitar tabs? Well we do! Its called Tab Country. It has a great archive with a lot of country tabs.
Rockin Tabs
Are you looking for a site that has rock guitar tabs? Then Rockintabs.com is the place for you. It is a budding site with many rock guitar tabs. Submit your tab today.
Tab Gallery
Tab Gallery has a compilation of christian, rock, and country tabs all in one place. Come visit us.